Song name
# A B C D E F G H I J K L M N O P Q R S T U V W X Y Z

Mushroomhead - Sun Doesnt Rise tab

-------------------------------------------------------------------------------
		      Sun Doesn't Rise - Mushroomhead
-------------------------------------------------------------------------------
Tabbed by: metalmonkey147
Email:

Tuning: Drop C

 Clean Part

|---------------------------------------------------------------|
|---------------------------------------------------------------|
|---------------------------------------------------------------|
|---------------------------------------------------------------|
|-3h5-----5-----5-----6-----6-6-3h5-----5-----5-----6-----6-6---|
|---------------------------------------------------------------|

|---------------------------------------------------------------|
|---------------------------------------------------------------|
|---------------------------------------------------------------|
|---------------------------------------------------------------|
|-3h5-----5-----5-----6-----5-5-5p1-----1-----1-----5-----3-3---|
|---------------------------------------------------------------|

|---------------------------------------------------------------|
|---------------------------------------------------------------|
|---------------------------------------------------------------|
|---------------------------------------------------------------|
|-3h5-----5-----5-----6-----6-6-3h5-----5-----5-----6-----6-6---|
|---------------------------------------------------------------|

|---------------------------------------------------------------|
|---------------------------------------------------------------|
|---------------------------------------------------------------|
|---------------------------------------------------------------|
|-3h5-----5-----5-----6-----5-5-5p1-----1-----1-----5-----3-3---|
|---------------------------------------------------------------|

 Electric Part

|---------------------------------------------------------------|
|---------------------------------------------------------------|
|---------------------------------------------------------------|
|-0---0-X-X-0----0----X-X-X-X-0---0-X-X-0----0----X-X-X-X-------|
|-0---0-X-X-0----0----X-X-X-X-0---0-X-X-0----0----X-X-X-X-------|
|-0---0-X-X-0----0----X-X-X-X-0---0-X-X-0----0----X-X-X-X-------|

|---------------------------------------------------------------|
|---------------------------------------------------------------|
|---------------------------------------------------------------|
|-0---0-X-X-0----0----X-X-X-X-0---0-X-X-0----0----X-X-X-X-------|
|-0---0-X-X-0----0----X-X-X-X-0---0-X-X-0----0----X-X-X-X-------|
|-0---0-X-X-0----0----X-X-X-X-0---0-X-X-0----0----X-X-X-X-------|

|---------------------------------------------------------------|
|---------------------------------------------------------------|
|---------------------------------------------------------------|
|-0---0-X-X-0---0-X-X---------0---0-X-X-0---0-X-X---------------|
|-0---0-X-X-0---0-X-X-6-8-8-8-0---0-X-X-0---0-X-X-6-8-8-8-------|
|-0---0-X-X-0---0-X-X---------0---0-X-X-0---0-X-X---------------|

|---------------------------------------------------------------|
|---------------------------------------------------------------|
|---------------------------------------------------------------|
|-0---0-X-X-0---0-X-X---------3-----5-----6-----8-----11--------|
|-0---0-X-X-0---0-X-X-6-8-8-8-3-----5-----6-----8-----11--------|
|-0---0-X-X-0---0-X-X---------3-----5-----6-----8-----11--------|

|---------------------------------------------------------------|
|---------------------------------------------------------------|
|---------------------------------------------------------------|
|-10---10-X-X-10---10-X-X-10----3--------8-------5/6\5----------|
|-10---10-X-X-10---10-X-X-10----3--------8-------5/6\5----------|
|-10---10-X-X-10---10-X-X-10----3--------8-------5/6\5----------|

|---------------------------------------------------------------|
|---------------------------------------------------------------|
|---------------------------------------------------------------|
|-10---10-X-X-10---10-X-X-10----3--------8-------5/6\5----------|
|-10---10-X-X-10---10-X-X-10----3--------8-------5/6\5----------|
|-10---10-X-X-10---10-X-X-10----3--------8-------5/6\5----------|

|---------------------------------------------------------------|
|---------------------------------------------------------------|
|---------------------------------------------------------------|
|-10---10-X-X-10---10-X-X-10----3--------8-------5/6\5----------|
|-10---10-X-X-10---10-X-X-10----3--------8-------5/6\5----------|
|-10---10-X-X-10---10-X-X-10----3--------8-------5/6\5----------|

|------------------------------------------------------------------|
|------------------------------------------------------------------|
|------------------------------------------------------------------|
|-10---10-X-X-10---10-X-X-10----8---8-6---6-6---6-5---5-3-----(3)--|
|-10---10-X-X-10---10-X-X-10----8---8-6---6-6---6-5---5-3-----(3)--|
|-10---10-X-X-10---10-X-X-10----8---8-6---6-6---6-5---5-3-----(3)--|

|---------------------------------------------------------------|
|---------------------------------------------------------------|
|---------------------------------------------------------------|
|-0---0-X-X-0----0----X-X-X-X-0---0-X-X-0----0----X-X-X-X-------|
|-0---0-X-X-0----0----X-X-X-X-0---0-X-X-0----0----X-X-X-X-------|
|-0---0-X-X-0----0----X-X-X-X-0---0-X-X-0----0----X-X-X-X-------|

|---------------------------------------------------------------|
|---------------------------------------------------------------|
|---------------------------------------------------------------|
|-0---0-X-X-0----0----X-X-X-X-0---0-X-X-0----0----X-X-X-X-------|
|-0---0-X-X-0----0----X-X-X-X-0---0-X-X-0----0----X-X-X-X-------|
|-0---0-X-X-0----0----X-X-X-X-0---0-X-X-0----0----X-X-X-X-------|

|---------------------------------------------------------------|
|---------------------------------------------------------------|
|---------------------------------------------------------------|
|-0---0-X-X-0---0-X-X---------0---0-X-X-0---0-X-X---------------|
|-0---0-X-X-0---0-X-X-6-8-8-8-0---0-X-X-0---0-X-X-6-8-8-8-------|
|-0---0-X-X-0---0-X-X---------0---0-X-X-0---0-X-X---------------|

|---------------------------------------------------------------|
|---------------------------------------------------------------|
|---------------------------------------------------------------|
|-0---0-X-X-0---0-X-X---------3-----5-----6-----8-----11--------|
|-0---0-X-X-0---0-X-X-6-8-8-8-3-----5-----6-----8-----11--------|
|-0---0-X-X-0---0-X-X---------3-----5-----6-----8-----11--------|

|---------------------------------------------------------------|
|---------------------------------------------------------------|
|---------------------------------------------------------------|
|-0---0-X-X-0---0-X-X---------0---0-X-X-0---0-X-X---------------|
|-0---0-X-X-0---0-X-X-6-8-8-8-0---0-X-X-0---0-X-X-6-8-8-8-------|
|-0---0-X-X-0---0-X-X---------0---0-X-X-0---0-X-X---------------|

|---------------------------------------------------------------|
|---------------------------------------------------------------|
|---------------------------------------------------------------|
|-0---0-X-X-0---0-X-X---------3-----5-----6-----8-----11--------|
|-0---0-X-X-0---0-X-X-6-8-8-8-3-----5-----6-----8-----11--------|
|-0---0-X-X-0---0-X-X---------3-----5-----6-----8-----11--------|

|---------------------------------------------------------------|
|---------------------------------------------------------------|
|---------------------------------------------------------------|
|-0---0-X-X-0---0-X-X---------3-----5-----6-----8-----11--------|
|-0---0-X-X-0---0-X-X-6-8-8-8-3-----5-----6-----8-----11--------|
|-0---0-X-X-0---0-X-X---------3-----5-----6-----8-----11--------|

|---------------------------------------------------------------|
|---------------------------------------------------------------|
|---------------------------------------------------------------|
|-10---10-X-X-10---10-X-X-10----3--------8-------5/6\5----------|
|-10---10-X-X-10---10-X-X-10----3--------8-------5/6\5----------|
|-10---10-X-X-10---10-X-X-10----3--------8-------5/6\5----------|

|---------------------------------------------------------------|
|---------------------------------------------------------------|
|---------------------------------------------------------------|
|-10---10-X-X-10---10-X-X-10----3--------8-------5/6\5----------|
|-10---10-X-X-10---10-X-X-10----3--------8-------5/6\5----------|
|-10---10-X-X-10---10-X-X-10----3--------8-------5/6\5----------|

|---------------------------------------------------------------|
|---------------------------------------------------------------|
|---------------------------------------------------------------|
|-10---10-X-X-10---10-X-X-10----3--------8-------5/6\5----------|
|-10---10-X-X-10---10-X-X-10----3--------8-------5/6\5----------|
|-10---10-X-X-10---10-X-X-10----3--------8-------5/6\5----------|

|---------------------------------------------------------------|
|---------------------------------------------------------------|
|---------------------------------------------------------------|
|-10---10-X-X-10---10-X-X-10----8---8-6---6-6---6-5---5-3-------|
|-10---10-X-X-10---10-X-X-10----8---8-6---6-6---6-5---5-3-------|
|-10---10-X-X-10---10-X-X-10----8---8-6---6-6---6-5---5-3-------|

|---------------------------------------------------------------|
|---------------------------------------------------------------|
|---------------------------------------------------------------|
|-0--------(0)--------(0)--------(0)--------(0)--------(0)------|
|-0--------(0)--------(0)--------(0)--------(0)--------(0)------|
|-0--------(0)--------(0)--------(0)--------(0)--------(0)------|

 Clean Part

|---------------------------------------------------------------|
|---------------------------------------------------------------|
|---------------------------------------------------------------|
|---------------------------------------------------------------|
|-3h5-----5---3h5-----6-----6-6-3h5-----5---3h5-----6-----6-6---|
|---------------------------------------------------------------|

|---------------------------------------------------------------|
|---------------------------------------------------------------|
|---------------------------------------------------------------|
|---------------------------------------------------------------|
|-3h5-----5---3h5-----6-----6-6-3h5-----5---3h5-----6-----6-6---|
|---------------------------------------------------------------|

|---------------------------------------------------------------|
|---------------------------------------------------------------|
|---------------------------------------------------------------|
|---------------------------------------------------------------|
|-3h5-----5---3h5-----6-----5-5-5p1-----1-----1-----5-----3-3---|
|---------------------------------------------------------------|

|---------------------------------------------------------------|
|---------------------------------------------------------------|
|---------------------------------------------------------------|
|---------------------------------------------------------------|
|-3h5-----5-----5-----6-----6-6-3h5-----5-----5-----6-----6-6---|
|---------------------------------------------------------------|

|---------------------------------------------------------------|
|---------------------------------------------------------------|
|---------------------------------------------------------------|
|---------------------------------------------------------------|
|-3h5-----5-----5-----6-----5-5-5p1-----1-----1-----5-----3-----|
|---------------------------------------------------------------|

Electric Part

|---------------------------------------------------------------|
|---------------------------------------------------------------|
|---------------------------------------------------------------|
|-0---0-X-X-0---0-X-X---------0---0-X-X-0---0-X-X---------------|
|-0---0-X-X-0---0-X-X-5-5-5-6-0---0-X-X-0---0-X-X-5-5-5-6-------|
|-0---0-X-X-0---0-X-X---------0---0-X-X-0---0-X-X---------------|

|---------------------------------------------------------------|
|---------------------------------------------------------------|
|---------------------------------------------------------------|
|-0---0-X-X-0---0-X-X---------0---0-X-X-0-----------------------|
|-0---0-X-X-0---0-X-X-5-5-5-6-0---0-X-X-0-----------------------|
|-0---0-X-X-0---0-X-X---------0---0-X-X-0-----------------------|

|---------------------------------------------------------------|
|---------------------------------------------------------------|
|---------------------------------------------------------------|
|-10---10-X-X-10---10-X-X-10----3--------8-------5/6\5----------|
|-10---10-X-X-10---10-X-X-10----3--------8-------5/6\5----------|
|-10---10-X-X-10---10-X-X-10----3--------8-------5/6\5----------|

|---------------------------------------------------------------|
|---------------------------------------------------------------|
|---------------------------------------------------------------|
|-10---10-X-X-10---10-X-X-10----3--------8-------5/6\5----------|
|-10---10-X-X-10---10-X-X-10----3--------8-------5/6\5----------|
|-10---10-X-X-10---10-X-X-10----3--------8-------5/6\5----------|

|---------------------------------------------------------------|
|---------------------------------------------------------------|
|---------------------------------------------------------------|
|-10---10-X-X-10---10-X-X-10----3--------8-------5/6\5----------|
|-10---10-X-X-10---10-X-X-10----3--------8-------5/6\5----------|
|-10---10-X-X-10---10-X-X-10----3--------8-------5/6\5----------|

|---------------------------------------------------------------|
|---------------------------------------------------------------|
|---------------------------------------------------------------|
|-10---10-X-X-10---10-X-X-10----8---8-6---6-6---6-5---5-3-------|
|-10---10-X-X-10---10-X-X-10----8---8-6---6-6---6-5---5-3-------|
|-10---10-X-X-10---10-X-X-10----8---8-6---6-6---6-5---5-3-------|

|------------------------------------------------------------------|
|------------------------------------------------------------------|
|------------------------------------------------------------------|
|-0-0-0-0-X-X-0-0-0-0-X-X-X-X-X-X-0-0-0-0-X-X-0-0-0-0-X-X-X-X-X-X--|
|-0-0-0-0-X-X-0-0-0-0-X-X-X-X-X-X-0-0-0-0-X-X-0-0-0-0-X-X-X-X-X-X--|
|-0-0-0-0-X-X-0-0-0-0-X-X-X-X-X-X-0-0-0-0-X-x-0-0-0-0-X-X-X-X-X-X--|

|------------------------------------------------------------------|
|------------------------------------------------------------------|
|------------------------------------------------------------------|
|-0-0-0-0-X-X-0-0-0-0-X-X-X-X-X-X-0-0-0-0-X-X-0-0-0-0-X-X-X-X-X-X--|
|-0-0-0-0-X-X-0-0-0-0-X-X-X-X-X-X-0-0-0-0-X-X-0-0-0-0-X-X-X-X-X-X--|
|-0-0-0-0-X-X-0-0-0-0-X-X-X-X-X-X-0-0-0-0-X-x-0-0-0-0-X-X-X-X-X-X--|

|----------------------------------------------------------------------|
|----------------------------------------------------------------------|
|----------------------------------------------------------------------|
|-0-0-0-0-X-X-0-0-0-0-X--X--X--X--X-0-0-0-0-X-X-0-0-0-0-X--X--X--X--X--|
|-0-0-0-0-X-X-0-0-0-0-X--X--X--X--X-0-0-0-0-X-X-0-0-0-0-X--X--X--X--X--|
|-0-0-0-0-X-X-0-0-0-0-X--X--X--X--X-0-0-0-0-X-X-0-0-0-0-X--X--X--X--X--|

|-------------------------------------------------------|
|-------------------------------------------------------|
|-------------------------------------------------------|
|-0-0-0-0-X-X-0-0-0-0-X--X--X--X--X-0-0-0-0-X-X-0-0-0---|
|-0-0-0-0-X-X-0-0-0-0-X--X--X--X--X-0-0-0-0-X-X-0-0-0---|
|-0-0-0-0-X-X-0-0-0-0-X--X--X--X--X-0-0-0-0-X-X-0-0-0---|



************************************

| .   palm mute
| /   slide up
| \   slide down
| h   hammer-on
| p   pull-off
| ~   vibrato
| *   harmonic
| x   Mute note
| b   Bend
| pb  Pre-bend
| br  Bend release
| pbr Pre-bend release
| brb Bend release bend

************************************
Tap to rate this tab
 
# A B C D E F G H I J K L M N O P Q R S T U V W X Y Z