Song name
# A B C D E F G H I J K L M N O P Q R S T U V W X Y Z

Mushroomhead - Almost Gone tab

-------------------------------------------------------------------------------
			     Almost Gone - Mushroomhead
-------------------------------------------------------------------------------

now, i never said this tab is exact, this is how I play it, but it is also the most 
tab here.

Has it occurred to no one that they use 7 strings: this song dosent
use the low B much, but according to other tabs its in Drop C.


Tuning: EADGBE

Main Riff
e|---------------------------------------------------------------------------|
B|---------------------------------------------------------------------------|
G|---------------------------------------------------------------------------|
D|---------------------------------------------------------------------------|
A|---------4----------------------4------------------------------------------|
E|-6-6-4h6---6p4-6p4-----6-6-4h6---6p4-6p4-----------------------------------|
B|--------------------6---------------------6--------------------------------|

Alternate Riff
e|---------------------------------------------------------------------------|
B|---------------------------------------------------------------------------|
G|---------------------------------------------------------------------------|
D|---------------------------------------------------------------------------|
A|---------4----------------------4~~~~~-------------------------------------|
E|-6-6-4h6---6p4-6p4------6-6-4h6--------------------------------------------|
B|--------------------6------------------------------------------------------|

Deluge
  Db/Ab    B/Gb
e|---------------------------------------------------------------------------|
B|---------------------------------------------------------------------------|
G|---------------------------------------------------------------------------|
D|-6~~~~~~--4~~~~~~----------------------------------------------------------|
A|-4~~~~~~--2~~~~~~----------------------------------------------------------|
E|-4~~~~~~--2~~~~~~----------------------------------------------------------|
B|---------------------------------------------------------------------------|

Bridge
e|---------------------------------------------------------------------------|
B|---------------------------------------------------------------------------|
G|---------------------------------------------------------------------------|
D|--8-7-6~\-x-xx ------------------------------------------------------------|
A|--6-5-4~\-x-xx---8-7-6~\-x-xx----------------------------------------------|
E|--6-5-4~\-x-xx---6-5-4~\-x-xx----------------------------------------------|
B|-----------------6-5-4~\-x-xx----------------------------------------------|

Listen to the song for timing etc: in the interlude, just play the main riff with PM to 
the bass.
Tap to rate this tab
# A B C D E F G H I J K L M N O P Q R S T U V W X Y Z