Song name
# A B C D E F G H I J K L M N O P Q R S T U V W X Y Z

Mushroomhead - 12 Hundred tab

E--------------------------------------------------------|
B--------------------------------------------------------|
G-(7)/---------------------------------------------------|
D--------------------------------------------------------|
A-------4-3--3-3-3-4-3--3-3-3-4-3--3-3-3-4-3--3-3-3-4-3--|
E-------4-3--3-3-3-4-3--3-3-3-4-3--3-3-3-4-3--3-3-3-4-3--|
B-------2-1--1-1-1-2-1--1-1-1-2-1--1-1-1-2-1--1-1-1-2-1--|

E---------------------------------------------------|
B---------------------------------------------------|
G---------------------------------------------------|
D---------------------------------------------------|
A--4-3--3-3-3-4-3--3-3-3-4-3--3-3-3-4-3--3-6-3-5-3--|
E--4-3--3-3-3-4-3--3-3-3-4-3--3-3-3-4-3--3-6-3-5-3--|
B--2-1--1-1-1-2-1--1-1-1-2-1--1-1-1-2-1--1-4-1-3-1--|

"The Mother Of Nothing!"
E---------------------------------------------------|
B---------------------------------------------------|
G---------------------------------------------------|
D---------------------------------------------------|
A--4-3--3-3-3-4-3--3-3-3-4-3--3-3-3-4-3--3-6-3-5-3--|
E--4-3--3-3-3-4-3--3-3-3-4-3--3-3-3-4-3--3-6-3-5-3--|
B--2-1--1-1-1-2-1--1-1-1-2-1--1-1-1-2-1--1-4-1-3-1--| x4


7 String Used, The Bracket's At The Start Is For A Pinch Harmonic.
Tap to rate this tab
 
# A B C D E F G H I J K L M N O P Q R S T U V W X Y Z