Song name
# A B C D E F G H I J K L M N O P Q R S T U V W X Y Z

Mushroomhead - Simpleton tab

I can't believe nobody has made a tab of this yet, it's so easy!! Anyways, here we go!

Artist: Mushroomhead
Album: Mushroomhead
Song: Simpleton

Tuning Drop C and a quarter step down / 2.25 Steps down
C, G, C, F, A, D

Main riff (starts at 0:50)
D|--------------------|         D|------------|
A|--------------------|         A|------------|
F|--------------------|         F|------------|
C|-5---5-----6--5---5-| x2 then C|------------| x2
G|-5---5-----6--5---5-|         G|-5-6--------|
C|-5---5-----6--5---5-|         C|-5-6-8~~~~~~|

Now, there is a little "Riff" that comes before you play the main riff for the third 
time (shown beneath)

D|---------|
A|---------|
F|---------|
C|-6-5-4---|
G|-6-5-4---|
C|-6-5-4---|
 Pm--------|

Main riff
D|-----------------------------------------------------------------------|
A|-----------------------------------------------------------------------|
F|-----------------------------------------------------------------------|
C|-5-5-5-5-5-5-5-6-5-5-5-5-5-5-5-6-5-5-5-5-5-5-5-6-5-5-5-5-5-5-----------|
G|-5-5-5-5-5-5-5-6-5-5-5-5-5-5-5-6-5-5-5-5-5-5-5-6-5-5-5-5-5-5-----------|
C|-5-5-5-5-5-5-5-6-5-5-5-5-5-5-5-6-5-5-5-5-5-5-5-6-5-5-5-5-5-5-5-6-8~~~~-|

Bridge
D|-------------------------------------------------------------------|
A|-------------------------------------------------------------------|
F|-7~~~~~~-8~~~~~~~-7~~~~~~-8~~~~~~-12~~~~~~13~~~~~~12~~~~~~13~~~~~~-|
C|-------------------------------------------------------------------|
G|-5~~~~~~-6~~~~~~~-5~~~~~~-6~~~~~~-10~~~~~~11~~~~~~10~~~~~~11~~~~~~-|
C|-------------------------------------------------------------------|

Outro
D|-------------------------------------------------|
A|-------------------------------------------------|
F|-------------------------------------------------|
C|-0~~~~~~~~~~~~~~~~~~~~~~~~~~~~~~~~~~~~~~~~~~~~~~-|
G|-0~~~~~~~~~~~~~~~~~~~~~~~~~~~~~~~~~~~~~~~~~~~~~~-|
C|-0~~~~~~~~~~~~~~~~~~~~~~~~~~~~~~~~~~~~~~~~~~~~~~-|
Tap to rate this tab
 
# A B C D E F G H I J K L M N O P Q R S T U V W X Y Z