Song name
# A B C D E F G H I J K L M N O P Q R S T U V W X Y Z

Mushroomhead - Chancre Sore tab

As far as the guitar part this song is exactly two chords, and it's freakin awesome.

I went into a pretty detailed description of the tuning in my 
Bwomp tap. Slightly less than a quarter step down from C. But it doesn't 
really matter what tuning you play this in as long as the chords you're 
hitting are E and D (a quarter step down of course!)

First and last riff
|----------------------------------|
|----------------------------------|
|----------------------------------|
|----------------------------------|
|-6-6-----6-6-----6-6-----6--------|
|-4-4-----4-4-----4-4-----4--------|

Then it reverses...
|----------------------------------|
|----------------------------------|
|----------------------------------|
|----------------------------------|
|-----6-6-----6-6-----6-6-----6-6--|
|-----4-4-----4-4-----4-4-----4-4--|


Chorus
|----------------------------------|
|----------------------------------|
|----------------------------------|
|----------------------------------|
|-4---------------4----------------|
|-2---------------2----------------|


Verse (Look familier?)
|----------------------------------|
|----------------------------------|
|----------------------------------|
|----------------------------------|
|-6-6-----6-6-----6-6-----6--------|
|-4-4-----4-4-----4-4-----4--------|
Tap to rate this tab
# A B C D E F G H I J K L M N O P Q R S T U V W X Y Z