Song name
# A B C D E F G H I J K L M N O P Q R S T U V W X Y Z

Mushroomhead - Bwomp tab

There's been quite a bit of discussion on here about Mushroomhead's tuning.
Nowadays, they do indeed play 7 strings, but back in the 90's they played 6
strings, tuned almost halfway between two notes. I believe it is almost 
halfway between B and C standard, slightly closer to C. Although it is very 
possible that they are tuned halfway between B and B flat, or between B flat 
and A, and just happen to not play the low notes very much. To my ear, this 
tab sounds correct for this tuning.

This beginning part is played on keyboard, but if you happen to feel like 
playing it on guitar, here's the main part of it...
|------------------------------------------------------------------|
|------------------------------------------------------------------|
|---------------------------------------------------------11-------|
|-11------7-------9-------4-------11------7-------9----------------|
|------------------------------------------------------------------|
|------------------------------------------------------------------|

Riff 1
|----------------|----------------|----------------|-----------------|
|----------------|----------------|----------------|-----------------|
|----------------|----------------|----------------|-----------------|
|----------------|----------------|----------------|-----------------|
|-4--2--4--2-5-2-|-4--2--4--2-5---|-4--2--4--2-5-2-|-4---------------|
|-2--0--2--0-3-0-|-2--0--2--0-3---|-2--0--2--0-3-0-|-2---------------|
  -  -  -  - - -   -  -  -  -       -  -  -  - - -   -

Riff 2
|------------------|
|------------------|
|------------------|
|------------------|
|------------------|
|-2222222222222222-| (fyi, those are twos, not twenty-twos)


Riff 3 
|-----------------|-----------------|-----------------|-----------------|
|-----------------|-----------------|-----------------|-----------------|
|-----------------|-----------------|-----------------|-----------------|
|-4---4-4---4-4---|-7---7-7---7-7---|-6---6-6---6-6---|-5---5-5---5-5---|
|-----------------|-----------------|-----------------|-----------------|
|-2---------------|-5---------------|-4---------------|-3---------------|

Riff 4
|----------------|----------------|----------------|-----------------|
|----------------|----------------|----------------|-----------------|
|----------------|----------------|----------------|-----------------|
|-4--2--4--2-5-2-|-4--2--4--2-5555|-4--2--4--2-5-2-|-4--2--4--555555-|
|----------------|----------------|----------------|-----------------|
|----------------|----------------|----------------|-----------------|
(This riff may have the lower octave underneath it as well)


Riff 5
I think Dinner (Or Gravy if you're listening to the XX version)is playing this...
|----------------|----------------|----------------|-----------------|
|----------------|----------------|----------------|-----------------|
|----------------|----------------|----------------|-----------------|
|----------------|----------------|----------------|-----------------|
|-4--2--4--2-5-2-|-4--2--4--2-5---|-4--2--4--2-5-2-|-4--2--4--5------|
|-2--0--2--0-3-0-|-2--0--2--0-3---|-2--0--2--0-3-0-|-2--0--2--3------|
  -  -  -  - - -   -  -  -  -       -  -  -  - - -   -  -  -
While JJ plays this on top of it...
|----------------|----------------|----------------|-----------------|
|----------------|----------------|----------------|-----------------|
|----------------|----------------|----------------|-----------------|
|----------------|------------5555|----------------|----------555555-|
|-4--2--4--2-5-2-|-4--2--4--2-----|-4--2--4--2-5-2-|-4--2--4---------|
|-2--0--2--0-3-0-|-2--0--2--0-----|-2--0--2--0-3-0-|-2--0--2---------|
  -  -  -  - - -   -  -  -  -       -  -  -  - - -   -  -  -
Riff 6 (Just a variation of Riff 3)
|------------------|------------------|------------------|------------------|
|------------------|------------------|------------------|------------------|
|------------------|------------------|------------------|------------------|
|-44444-4---4-4444-|-77777-7---7-7777-|-66666-6---6-6666-|-55555-5---5-5555-|
|------------------|------------------|------------------|------------------|
|-22222-2---2-2222-|-55555-5---5-5555-|-44444-4---4-4444-|-33333-3---3-3333-|

The last time, play this instead of the last bar...
|-----------------|
|-----------------|
|-----------------|
|-5-----5-----5---|
|-5-4-4-5-4-4-5-4-|
|-3-2-2-3-2-2-3-2-|
    - -   - -   -
Riff 7
|-----------------|-----------------|-----------------|-----------------|
|-----------------|-----------------|-----------------|-----------------|
|-----------------|-----------------|-----------------|-----------------|
|-----------------|-----------------|-----------------|-5-----5-----5---|
|-4-----------4---|-7-----------7---|-6-----------6---|-5-4-4-5-4-4-5-4-|
|-2-----------2---|-5-----------5---|-4-----------4---|-3-2-2-3-2-2-3-2-|
                                                          - -   - -   -
Riff 8
|---------------------------------------------------|-----------------|
|---------------------------------------------------|-----------------|
|---------------------------------------------------|-----------------|
|---------------------------------------------------|-5-----5-----5---|
|-4----(hold)---------------------------------------|-5-4-4-5-4-4-5-4-|
|-2----(hold)---------------------------------------|-3-2-2-3-2-2-3-2-|
                                                        - -   - -   -
Ending
|-----------------|
|-----------------|
|-----------------|
|-5-----5-----5---|
|-5-4-4-5-4-4-5---|
|-3-2-2-3-2-2-3---|
    - -   - -
Tap to rate this tab
# A B C D E F G H I J K L M N O P Q R S T U V W X Y Z