Song name
# A B C D E F G H I J K L M N O P Q R S T U V W X Y Z

Mushroomhead - These Filthy Hands tab

This song, and everything else off of Mushroomhead's first two independent releases, is
tuned to roughly halfway between c and b standard. The best way to get the tuning right
is listen for a part where they're holding an open note and tune to that, it's close to 
C -40 cents on a guitar tuner.

Part 1
|------------------------------------------|
|------------------------------------------|
|------------------------------------------|
|------------------------------------------|
|-4/6-6-6-6---6-6-------6-6-----6-6--------|
|-2/4-4-4-4---4-4-------4-4-----4-4--------|
      - -     - -       - -     - -
|------------------------------------------|
|------------------------------------------|
|------------------------------------------|
|------------------------------------------|
|-4/7-7-7-7---7-7-------7-7-----7-7--------|
|-2/5-5-5-5---5-5-------5-5-----5-5--------|
      - -     - -       - -     - -

|------------------------------------------|
|------------------------------------------|
|------------------------------------------|
|------------------------------------------|
|-4/6-6-6-6---6-6-------6-6-----6-6--------|
|-2/4-4-4-4---4-4-------4-4-----4-4--------|
      - -     - -       - -     - -

|------------------------------------------|
|------------------------------------------|
|------------------------------------------|
|------------------------------------------|
|-4-(Hold)---------------------------------|
|-2-(Hold)---------------------------------|

Part 2
|------------------------------------------------|
|------------------------------------------------|
|------------------------------------------------|
|------------------------------------------------|
|-4/6-6-6-6---6-6-6-6-6-6-6-6-6-6-6-----6-6------|
|-2/4-4-4-4---4-4-4-4-4-4-4-4-4-4-4-----4-4------|
      - -     -   -   - -               -
|------------------------------------------------|
|------------------------------------------------|
|------------------------------------------------|
|------------------------------------------------|
|-4/7-7-7-7---7-7-7-7-7-7-7-7-7-7-7-----7-7------|
|-2/5-5-5-5---5-5-5-5-5-5-5-5-5-5-5-----5-5------|
      - -     -   -   - -               -
|------------------------------------------------|
|------------------------------------------------|
|------------------------------------------------|
|------------------------------------------------|
|-4/6-6-6-6---6-6-6-6-6-6-6-6-6-6-6-----6-6------|
|-2/4-4-4-4---4-4-4-4-4-4-4-4-4-4-4-----4-4------|
      - -     -   -   - -               -
|------------------------------------------|
|------------------------------------------|
|------------------------------------------|
|------------------------------------------|
|-4-(Hold)---------------------------------|
|-2-(Hold)---------------------------------|

Part 3
|---------------------------------|   |-------------------------------|
|---------------------------------|   |-------------------------------|
|---------------------------------|   |-------------------------------|
|---------------------------------|x7 |-------------------------------|x1
|-6-6-6---6-6-6---6-6-6---6-6-6---|   |-6-6---6-6---6-6---6-6---6-6-6-|
|-4-4-4---4-4-4---4-4-4---4-4-4---|   |-4-4---4-4---4-4---4-4---4-4-4-|
  - - -   - - -   - - -   - - -               - -         - -
(Later on this whole section gets played again but with no palm muting in the first chunk)
|---------------------------------|
|---------------------------------|
|---------------------------------|
|---------------------------------|
|-11--9-9---6-6---6-6-6---6-6-6---|
|-9---7-7---4-4---4-4-4---4-4-4---|
                  - -     - -
Tap to rate this tab
# A B C D E F G H I J K L M N O P Q R S T U V W X Y Z