Song name
# A B C D E F G H I J K L M N O P Q R S T U V W X Y Z

Mushroomhead - Indifferent tab

The tuning is C Standard, tuned down slightly less than a quarter step. (Roughly halfway 
between C and B)

R.I.P. JJ

Riff 1
|-----------------------------------------------------------------|
|-----------------------------------------------------------------|
|-----------------------------------------------------------------|
|-7-7-7-7-7---7---5-5-5-5-5---5---3-3-3-3-3---3---2-2-2-2-2---2---|
|-5-5-5-5-5---5---3-3-3-3-3---3---1-1-1-1-1---1---0-0-0-0-0---0---|
|-----------------------------------------------------------------|
pm  - - -           - - -           - - -           - - -

Riff 2
Slide up to each of these notes
|-----------------------------------------------------------------|
|-----------------------------------------------------------------|
|-7---------------9---------------10--------------12--------------|
|-----------------------------------------------------------------|
|-5---------------7---------------8---------------10--------------|
|-----------------------------------------------------------------|

|-----------------------------------------------------------------|
|-----------------------------------------------------------------|
|-----------------------------------------------------------------|
|-7---------------5---------------3----------------2--------------|
|-5---------------3---------------1----------------0--------------|
|-----------------------------------------------------------------|

(Only after the first time where it goes back into the verse with no guitar)
|---------------------------------|
|---------------------------------|
|-7-------------------------------|
|---------------------------------|
|-5-------------------------------|
|---------------------------------|


Repeat Riffs 1 and 2, and then..

Riff 3
All the quarter notes here are on the up beats, kind of a disco feel
|-----------------------------------------------------------------|
|-----------------------------------------------------------------|
|-----------------------------------------------------------------|
|-2-2---2---2---2---2---2-7-5-3-2---2---2---2---2---2---2-7-5-3-2-|
|-0-0---0---0---0---0---0-5-3-1-0---0---0---0---0---0---0-5-3-1-0-|
|-----------------------------------------------------------------|
  E Q   Q   Q   Q   Q   E E E E Q   Q   Q   Q   Q   Q   E E E E Q
|---------------------------------|
|---------------------------------|
|---------------------------------|
|---------------------------------|
|---2-2-222-2222222-2222227-5-3-2-|
|---0-0-000-0000000-0000005-3-1-0-|
        --  --- --  --- --

Reapeat Riffs 1, 2 and 3

Riff 4
|---------------------------------------------------------|
|---------------------------------------------------------|
|---------------------------------------------------------|
|---------------------------------------------------------|
|-5/7-7-7-7-7---5/7-7-7-7-7---5/7-7-7-7-7---5/7-7-7-7-7---|
|-3/5-5-5-5-5---3/5-5-5-5-5---3/5-5-5-5-5---3/5-5-5-5-5---|
          -             -             -             -
Play this once before going back into riff 3
|---------|
|---------|
|---------|
|-7-5-3-2-|
|-5-3-1-0-|
|---------|

Repeat riff 3

Alternate sections of Riff 4 with the tailpeice of Riff 3 and there you go!
Tap to rate this tab
# A B C D E F G H I J K L M N O P Q R S T U V W X Y Z