Guitaretab - guitar tabs
Song name
# A B C D E F G H I J K L M N O P Q R S T U V W X Y Z

Mushroomhead - Before I Die tab

Before I Die from Mushroomhead
Tuning: ADGCFAD

Main
------------------------------------|
------------------------------------|
------------------------------------|
--------4-------4----4----55555555--|
--------x---2---x----x----33333333--|
-222222-2-2-0-2-2-22-2-22-----------|
------------------------------------|
 ......   .   .   ..   .. ........
Fill(slow slides, those're hamonics, pick the whole time fast)
--------------|
--------------|
--------------|
--------------|
--------------|
-2*/5*\2*-----|
--------------|

-Play Main
Fill 2(x4)
---------|
---------|
-5~------|
-4~------|
-x-------|
-2~------|
---------|
[ Tab from: http://www.guitaretab.com/m/mushroomhead/41426.html ]
-Play Main
-Play Fill 2

Interlude
-----------------------------------------------------|
-----------------------------------------------------|
-----------------------------------------------------|
-2----4----2----4----5424--2----4----2----4----5555--|
-0-44-2-44-0-44-2-44-3202--0-44-2-44-0-44-2-44-3333--|
---22---22---22---22---------22---22---22---22-------|
-----------------------------------------------------|
   ..   ..   ..   .. ....    ..   ..   ..   ..
-Play Fill 2
-Play Main

Outro
----------------------|
----------------------|
-----9-----8----------|
-----9-----8----------|
-444-7-444-6-44444/5--|
-222---222---22222/3--|
----------------------|
 ...   ...
-Play Main once
Related for Before I Die tab
Advertisement will be closed in 10 seconds