Song name
# A B C D E F G H I J K L M N O P Q R S T U V W X Y Z

Mushroomhead - Xeroxed tab

Xeroxed from Mushroomhead
Tuning: ADGCFAD

Listen to the timing well.

Fill 1
------------------|
------------------|
------------------|
------------------|
-4-4-4-4-4-4------|
-2-2-2-2-2-2------|
------------------|
 . . . . . .
Chorus
-------------------|
-------------------|
-------------------|
-4-5-4-------------|x3
-4-5-4-4-4-4-4-4-4-|
-2-3-2-2-2-2-2-2-2-|
-------------------|
       . . . . . .
Then this once:
----------|
----------|
----------|
-7-5-4----|
-7-5-4----|
-5-3-2----|
----------|

Verse Fill
---------------|
---------------|
---------------|
---------------|
---------------|
-2222-2222-----|
---------------|
 .... ....
Verse
--------------------------------------|
--------------------------------------|
------------------------------------5-|
------------------------------------5-|
-4444-4444-4444-4444-4444-4444-4444-3-|
-2222-2222-2222-2222-2222-2222-2222---|
--------------------------------------|
 .... .... .... .... .... .... ....
-Play Fill 1
-Play Chorus
-Play Verse
-Play Fill 1
-Play Chorus

Outro 1 is Fill 1 repeated.

Outro 2
-------------|
-------------|
-------------|
-------------|
-54-4-4-4-4--|
-32-2-2-2-2--|
-------------|
 .. . . . .
Tap to rate this tab
# A B C D E F G H I J K L M N O P Q R S T U V W X Y Z