Song name
# A B C D E F G H I J K L M N O P Q R S T U V W X Y Z

Mushroomhead - Sun Doesnt Rise tab

Band - Mushroomhead
Song - Sun Doesn't Rise
Album - XIII
Tuning - Bb,Eb,Ab,Db,Gb,Bb,Eb

Intro - Guitar 1 w/palm mutes
|-------------------------------------------------------------------------------------------------|
|-------------------------------------------------------------------------------------------------|
|-------------------------------------------------------------------------------------------------|
|-------------------------------------------------------------------------------------------------|
|-2-4-4-4-4-4-4-4-4-5-5-5-5-5-5-5-2-4-4-4-4-4-4-4-4-5-5-5-4-4-4-4-4-----------------4-4-4-2-2-2-2-|
|-------------------------------------------------------------------5-5-5-5-5-5-5-5---------------|
|-------------------------------------------------------------------------------------------------|

Verse
|----------------------|
|----------------------|
|----------------------|
|----------------------|
|-4-4-x-x-4--4-x-x-x-x-|   4x
|-4-4-x-x-4--4-x-x-x-x-|
|-2-2-x-x-2--2-x-x-x-x-|

|------------------------|
|------------------------|
|------------------------|
|------------------------|
|-4-4-x-x-4--4-x-5/7-7-7-|   3x
|-4-4-x-x-4--4-x---------|
|-2-2-x-x-2--2-x---------|

|-----------------|
|-----------------|
|-----------------|
|---4--5--7-10-10-|
|-7-4--5--7-10-10-|
|-7-2--3--5-8--8--|
|-5---------------|

Chorus
|-------------------------------|
|-------------------------------|
|-------------------------------|
|-------------------------7-----|
|-9-x-x-x-9--x-x-x-9--7---7---5-|   3x
|-7-x-x-x-7--x-x-x-7--7---5---5-|
|-0-x-x-x-0--x-x-x-0--5-------3-|

|---------------------------------|
|---------------------------------|
|---------------------------------|
|---------------------7-5--5--4-2-|
|-9-x-x-x-9--x-x-x-9--7-5--5--4-2-|
|-7-x-x-x-7--x-x-x-7--5-3--3--2-0-|
|-0-x-x-x-0--x-x-x-0--------------|

Play Verse

Play Chorus

Bridge
|-----------------------------------------------------------------------------------|
|-----------------------------------------------------------------------------------|
|-----------------------------------------------------------------------------------|
|-----------------------------------------------------------------------------------|
|-4-----------------x-x-x-x-x-x-x-x-x-x-x-x-x-x-x-x-2-4-4-4-4-4-4-4-4-4-4-4-4-4-4-4-|
|-4---------------------------------------------------------------------------------|
|-2---------------------------------------------------------------------------------|
                                               
Verse
|------------------------|
|------------------------|
|------------------------|
|------------------------|
|-4-4-x-x-4--4-x-4-4-4/5-|   3x
|-4-4-x-x-4--4-x---------|
|-2-2-x-x-2--2-x---------|

|-----------|
|-----------|
|-----------|
|-----------|
|-4-4-x-x-4-|
|-4-4-x-x-4-|
|-2-2-x-x-2-|

Play Chorus

Outro
|-----------------------------|
|-----------------------------|
|-----------------------------|
|-----------------------------|
|-4-4-4-x-x-4-4-4-x-x-x-x-x-x-|   4x
|-4-4-4-x-x-4-4-4-x-x-x-x-x-x-|
|-2-2-2-x-x-2-2-2-x-x-x-x-x-x-|

|---------------------------|
|---------------------------|
|---------------------------|
|---------------------------|
|-4-4-4-x-x-4-4-4-x-x-x-x-x-|   3x
|-4-4-4-x-x-4-4-4-x-x-x-x-x-|
|-2-2-2-x-x-2-2-2-x-x-x-x-x-|

|-----------------|
|-----------------|
|-----------------|
|-----------------|
|-4-4-4-x-x-4-4-4-|
|-4-4-4-x-x-4-4-4-|
|-2-2-2-x-x-2-2-2-|
Tap to rate this tab
 
# A B C D E F G H I J K L M N O P Q R S T U V W X Y Z