Song name
# A B C D E F G H I J K L M N O P Q R S T U V W X Y Z

Mushroomhead - Almost Gone tab

MUSHROOMHEAD-ALMOST GONE

tabbed by Joe Cancellare

Main Riff Thingy:

only bend a little bit. wah sounds cool with this.
D|---------------------|
A|---------------------|
F|---------------------|
C|-----------1~--------|
G|-3b-3b-0h3---0h3-3---|
C|-------------------5-|

Little "between" thing:

D|-----|
A|-----|
F|-5-4-|
C|-5-4-|
G|-3-2-|
C|-----|
^^^let em ring for a measure or something

Fill thing:

D|----------------------|
A|----------------------|
F|----------------------|
C|-10-9-8///---7-6-5///-|
G|-10-9-8///---7-6-5///-|
C|-10-9-8///---7-6-5///-|
(slow slides)

In the outro it does some variations on the main riff.
the one they do most is this:

D|-----------|
A|-----------|
F|-----------|
C|-----------|
G|-3~--------|
C|---3-4-5-6-|

I dont know the order or how many times they do the stuff, it's not hard to figure out...so rock on.

MUSHROOMHEAD
Tap to rate this tab
# A B C D E F G H I J K L M N O P Q R S T U V W X Y Z