Song name
# A B C D E F G H I J K L M N O P Q R S T U V W X Y Z

Mushroomhead - Embrace The Ending tab

Help us improve GuitareTab! Take a short survey!
         |       This is pretty much the whole song       |
  Intro  |                                                |
e|-------|------------------------------------------------|
b|-------|------------------------------------------------|
g|-----15|-----15--13--10-----10---8--10---8---6---8--10--|
d|---15--|--15-15--13---8---8--8---6---8---6---6---6---8--|
a|-13----|13---13--11---8--8---8---6---8---6---4---6---8--|
e|-------|------------------------------------------------|

  Except this part just listen and youll understand. The last
  three chords are the only difference 
e|--------------------------------------------------------|
b|--------------------------------------------------------|
g|------15--13--10-----10---8--10---8---6-----6---5---3---|
d|---15-15--13---8---8--8---6---8---6---6---6-6---3---3---|
a|-13---13--11---8--8---8---6---8---6---4--4--4---3---1---|
e|--------------------------------------------------------|

This song rocks. Have fun!
Related for Embrace The Ending tab