Song name
# A B C D E F G H I J K L M N O P Q R S T U V W X Y Z

Musiq Soulchild - Teach Me tab

teachme
musiq soulchild

tabbed by: dan ungson
email: danericu@yahoo.com

tuning: standard

intro

e|--------------4---7-----6-----7-----|
B|-----------4------------7-----9-----|
G|---------4--------------6-----8-----|
D|-------6----------------8-----9-----|
A|-----4------------------6-----7-----|
E|-----0------------------------------|

e|--------------11--9------------------11--9---------|
B|---------------------12--9------------------12-----|
G|---------------------------------------------------|
D|----------9----------------------9-----------------|
A|-------11------------------------------------------|
E|-----9-------------------------9-------------------|

e|--------------4---7-----6-----7-----|
B|-----------4------------7-----9-----|
G|---------4--------------6-----8-----|
D|-------6----------------8-----9-----|
A|-----4------------------6-----7-----|
E|-----0------------------------------|

e|--------------9------11--9---------|
B|--------------9-------------12-----|
G|--------------9--------------------|
D|----------9---11-------------------|
A|-------11--------------------------|
E|-----9-----------------------------|

verse 1

e|--------------4---7-----6-----7-----|   -----------------/
B|-----------4------------7-----9-----|                    |
G|---------4--------------6-----8-----|                    |
D|-------6----------------8-----9-----|                    |
A|-----4------------------6-----7-----|                    |
E|-----0------------------------------|                    |
                                                           3x
e|--------------11--9------------------11--9---------|     |
B|---------------------12--9------------------12-----|     |
G|---------------------------------------------------|     |
D|----------9----------------------9-----------------|     |
A|-------11------------------------------------------|     |
E|-----9-------------------------9-------------------|   --/

e|--------------4---7-----6-----7-----|
B|-----------4------------7-----9-----|
G|---------4--------------6-----8-----|
D|-------6----------------8-----9-----|
A|-----4------------------6-----7-----|
E|-----0------------------------------|

e|--------------9------11--9---------|
B|--------------9-------------12-----|
G|--------------9--------------------|
D|----------9---11-------------------|
A|-------11--------------------------|
E|-----9-----------------------------|

hook

e|--------------4---7-----6-----7-----|   ---------------/
B|-----------4------------7-----9-----|                  |
G|---------4--------------6-----8-----|                  |
D|-------6----------------8-----9-----|                  |
A|-----4------------------6-----7-----|                  |
E|-----0------------------------------|                  |
                                                         |
e|--------------11--9------------------11--9---------|   |
B|---------------------12--9------------------12-----|   |
G|---------------------------------------------------|   |
D|----------9----------------------9-----------------|   |
A|-------11------------------------------------------|   |
E|-----9-------------------------9-------------------|   |
                                                         2x
e|--------------4---7-----6-----7-----|                  |
B|-----------4------------7-----9-----|                  |
G|---------4--------------6-----8-----|                  |
D|-------6----------------8-----9-----|                  |
A|-----4------------------6-----7-----|                  |
E|-----0------------------------------|                  |
                                                         |
e|--------------9------11--9---------|                   |
B|--------------9-------------12-----|                   |
G|--------------9--------------------|                   |
D|----------9---11-------------------|                   |
A|-------11--------------------------|                   |
E|-----9-----------------------------|   ----------------/

verse 2

/----- same as verse 1 -----/

bridge

e|-----4-----6-----2---2-----|   ----------------/
B|-----5-----7-----4---4-----|                   |
G|-----4-----6-----3---4-----|                   |
D|-----6-----8-----4---4-----|                   3x
A|-----4-----6-----2---2-----|                   |
E|---------------------------|                   |
 you can either strum and/or pluck this part   --/

e|-----4-----6-----------------------------11--9---------|
B|-----5-----7-----9--7--------------7------------12-----|
G|-----4-----6-----8-----8--6-----6----------------------|
D|-----6-----8-----9-----------9-------------------------|
A|-----4-----6-----7-------------------------------------|
E|-------------------------------------------------------|

/-----then back to hook/chorus-----/


so i think thats it, playing styles differ, ,
Tap to rate this tab
# A B C D E F G H I J K L M N O P Q R S T U V W X Y Z