Song name
# A B C D E F G H I J K L M N O P Q R S T U V W X Y Z

Musiq Soulchild - Just Friends Acoustic tab

Just Friends - Musiq Soulchild

e|-----------------------------------------------|
B|-----------------7-7-----5-----55-----5-5--5---|
G|--9----98-7------7-7-----6-----66-----5-5--5---|
D|--9----98-7------6-6-----6-----66-----4-4--4---|
A|----------------7--7---0------------0----------|
E|--9---9-8-7--------------5---5--------4----4---|
      x    x    x     x     x       x       x

x = palm mute

This tab is pretty simple, just play this throughout the song.. but when you get to the 
before the chorus, before you start the tab over, you should slide up..

(Chorus)
e|--------------------------------------------------|
B|-----------------7-7-----5-----55-----5-5--5------|
G|--9----98-7------7-7-----6-----66-----5-5--5~~9---|
D|--9----98-7------6-6-----6-----66-----4-4--4~~9---|
A|----------------7--7---0------------0-------------|
E|--9---9-8-7--------------5---5--------4----4~~9---|
      x    x    x     x     x       x       x

~ = slide ( as far as you wanna go up but then back down to 9 to start the tab again)

This is my first tab ever so dont hate pls :)
I decided to tab this how I play it because I tried looking for tabs but I couldnt find 
for this song...


-Kyle
Tap to rate this tab
 
# A B C D E F G H I J K L M N O P Q R S T U V W X Y Z