Song name
# A B C D E F G H I J K L M N O P Q R S T U V W X Y Z

Musiq - Who Knows tab

Help us improve GuitareTab! Take a short survey!
-------------------------------------------------------------------------------
			     Who Knows - Music soulchild
                                 Album-Soulstar
-------------------------------------------------------------------------------
Tabbed by:Jeffkamungu
Email:geoffykom"yahoo.com

Tuning:Standard
     A9        A|         Fsh.m                        Dmaj7
e|-----0---|-----1---|-----2-----|-----7--|-----5-|---------5--------|
B|----2----|----2----|----2------|----5---|----5--|-----5h7-----5h7--|
G|---4-----|---4-----|---2-------|---6----|---6---|----6-------------|
D|--2------|--3------|--4--------|--5-----|--5----|---7--------------|
A|---------|---------|-----------|--------|-------|--5---------------|
E|---------|---------|-----------|--------|-------|------------------|
      Dm7       Dbm7       A|          Bm7              Csh.|
e|------5---|------4--|------2----|--------------|--------------|-----2--|
B|-----6----|-----5---|-----2-----|--3--------3--|--5--------2--|----3---|
G|----5-----|----4----|----0------|--------2-----|--------2-----|---2----|
D|---7------|---6-----|---2-------|------4-------|-----2--------|--2-----|
A|--5-------|--4------|--0--------|--2-----------|--4-----------|--------|
E|----------|---------|-----------|--------------|--------------|--------|

The whole song is played more or less in the same line as above throughout.

| /  slide up
| \  slide down
| h  hammer-on
| p  pull-off
| ~  vibrato
| +  harmonic
| x  Mute note
===============================================================================
Related for Who Knows tab