Song name
# A B C D E F G H I J K L M N O P Q R S T U V W X Y Z

Musiq - Halfcrazy tab

Artist: Musiq (Soulchild)
Song: Halfcrazy
Album: Juslisen (Just Listen)


Standard Tuning
This is my first tab so bear with me.
This song isn't really searched for tabs, I know.
I'm kind of doing this for my own reference and for anyone else who enjoys this kind of music.


Intro
e-x-----------x----------------x--------------------|
B-7-7-7-7-7-5-10-10-10-10-10-8-7-7-7-7-7-5-7--------|
G-7-----------9----------------6--------------------|x4
D-5-----------9----------------4-------------4-2----|
A-x-----------7----------------x-----------------4--|
E-x-----------x----------------x------------------2-|


Verse 1
"Never thought that we would ever be more than friends..."
e-x-----------x----------------x--------------------|
B-7-7-7-7-7-5-10-10-10-10-10-8-7-7-7-7-7-5-7--------|
G-7-----------9----------------6--------------------|x4
D-5-----------9----------------4-------------4-2----|
A-x-----------7----------------x-----------------4--|
E-x-----------x----------------x------------------2-|


Chorus
"And my mind's gone half crazy, Cuz I can't leave you alone..."
e-x-----------x----------------x--------------------|
B-7-7-7-7-7-5-10-10-10-10-10-8-7-7-7-7-7-5-7--------|
G-7-----------9----------------6--------------------|x4
D-5-----------9----------------4-------------4-2----|
A-x-----------7----------------x-----------------4--|
E-x-----------x----------------x------------------2-|


Verse 2
"I'd hate to walk away from you, as if this never existed..."
e-x-----------x----------------x--------------------|
B-7-7-7-7-7-5-10-10-10-10-10-8-7-7-7-7-7-5-7--------|
G-7-----------9----------------6--------------------|x4
D-5-----------9----------------4-------------4-2----|
A-x-----------7----------------x-----------------4--|
E-x-----------x----------------x------------------2-|


Chorus
"And my mind's gone half crazy, Cuz I can't leave you alone..."
e-x-----------x----------------x--------------------|
B-7-7-7-7-7-5-10-10-10-10-10-8-7-7-7-7-7-5-7--------|
G-7-----------9----------------6--------------------|x4
D-5-----------9----------------4-------------4-2----|
A-x-----------7----------------x-----------------4--|
E-x-----------x----------------x------------------2-|


Bridge
"Ooohhh, Oohhh..."
e-x-----------x-----------x-----------------------|
B-7-7-7-7-7-5-9-9-9-9-9-7-5-5-5-5-5-5h7h5---------|
G-7-----------9-----------6-----------------------|
D-9-----------x-----------7---------------(5-7-9)-|x4
A-x-----------7-----------x-----------------------|
E-x-----------x-----------x-----------------------|


Chorus
"And my mind's gone half crazy, Cuz I can't leave you alone.."
e-x-----------x----------------x--------------------|
B-7-7-7-7-7-5-10-10-10-10-10-8-7-7-7-7-7-5-7--------|
G-7-----------9----------------6--------------------|x4
D-5-----------9----------------4-------------4-2----|
A-x-----------7----------------x-----------------4--|
E-x-----------x----------------x------------------2-|

The rhythm is pretty simple.
To get it exactly, listen to the song.








Tap to rate this tab
# A B C D E F G H I J K L M N O P Q R S T U V W X Y Z