Song name
# A B C D E F G H I J K L M N O P Q R S T U V W X Y Z

Must Die - Arcadia tab

e|-----------------------------------------------------------------------------|
B|-12-----------15-12h13p12----12--------------------15-19b20b19-15-12-15------|
G|----14-12h14--------------14----14-12-14-12-14-16----------------------------|
D|-----------------------------------------------------------------------------|
A|-----------------------------------------------------------------------------|
E|-----------------------------------------------------------------------------|

e|------------------------19----15p14-19---------------------------------------|
B|-12-------------------------------------12h13p12----12-----------------------|
G|----14-12-14-12-14b16-----12--------------------14----14-12-14-12-14-16------|
D|-----------------------------------------------------------------------------|
A|-----------------------------------------------------------------------------|
E|-----------------------------------------------------------------------------|

e|----------------------------------------------17b19--------------------------|
B|-15-19b20b19-15-12-12h15p12-17b19--------------------------------------------|
G|------------------------------------12-14-12---------------------------------|
D|-----------------------------------------------------------------------------|
A|-----------------------------------------------------------------------------|
E|-----------------------------------------------------------------------------|
Tap to rate this tab
# A B C D E F G H I J K L M N O P Q R S T U V W X Y Z