Song name
# A B C D E F G H I J K L M N O P Q R S T U V W X Y Z

Mustan Kuun Lapset - Morfiinisiivet chords

Highlighted       Show chord diagrams
|---------5--3-5-3-------------------------|
|----3-5-6----------5-6-5-5-6-5-3---3-5-6-5|
|--2------------------------------3--------|
|------------------------------------------|
|------------------------------------------|
|------------------------------------------|

|----------------5-3-5-3--------------------------------|
|----3-5-6-6-5-3---------6-5-5-6-5-3---2-2-5-6-5-3-2-5-3|
|--2---------------------------------3------------------|
|-------------------------------------------------------|
|-------------------------------------------------------|
|-------------------------------------------------------|

|Dm|F|Gm|A|

|Dm|F            A|           
    Minun tapani hyvästellä
|Dm|F            A| 
    on olla tässä hetken verran
|Dm|F            A| 
    syleillä viimeisen kerran

|Dm                  |F A| 
Pois tästä maailmasta
|Dm                  |F A| 
tuskasta taivaisiin
|Dm                  |F A| 
uneksitko kuolemasta
|Dm                  |F A| 
matkallas korkeuksiin?

|Dm|F            A|    
    Jää uneen ystäväni
|Dm|F            A|    
    kun luotasi pois meen
|Dm|F            A|    
    en toivo sua näkeväni
|Dm|F            A|    
  enää, vankina valkoisen huoneen

|Dm|F|Gm|A| 
Tap to rate this tab
# A B C D E F G H I J K L M N O P Q R S T U V W X Y Z