Song name
# A B C D E F G H I J K L M N O P Q R S T U V W X Y Z

Mustan Kuun Lapset - Morfiinisiivet tab

Mustan Kuun Lapset - Morfiinisiivet - (c) Tabbed by MothMan

 h  = hammer-on
 p  = pull-off
 b  = bend
 r  = bend release
 /  = slide up/down
<5> = natural harmonic
[5] = artifical harmonic
 ~  = vibrato
 tr = trill
--
Dropped D tuning
--
Two guitars
--

[Riff 1]

Gtr. 1
E----------------1----------------------0--------------------------------------------------|
B--------------3---------------------------------------------------------------------------|
G------------2------------------------0------------------------3--------------------0-2----|
D-----------------------------------2------------------------5--------------------2--------|
A-------------------------------3--------------------------5------------------0------------|
E--------0---------------------------------------------5-----------------------------------|

Gtr. 2
E------0-1------------------5---3h5-3-1-0------0h1-0---------------------------------------|
B----3-----------------------------------------------3-----------------3h5--6-5------------|
G--2---------------------------------------------------3-----------------------------------|
D------------------------------------------------------------------------------------------|
A------------------------------------------------------------------------------------------|
E------------------------------------------------------------------------------------------|


Gtr. 1
E----------------1----------------------0--------------------------------------------------|
B--------------3---------------------------------------------------------------------------|
G------------2------------------------0-----------------------3---------------------0-2----|
D-----------------------------------2-----------------------5---------------------2--------|
A-------------------------------3-------------------------5-------------------0------------|
E--------0---------------------------------------------5-----------------------------------|

Gtr. 2
E------0-1---------0h1-3----5---3h5-3-1-0------0h1-0---------------------------------------|
B----3-----------------------------------------------3-----------------3h5--6-5------------|
G--2---------------------------------------------------3-----------------------------------|
D------------------------------------------------------------------------------------------|
A------------------------------------------------------------------------------------------|
E------------------------------------------------------------------------------------------|


[Riff 2]

Gtr. 1                                             1.                2.
E-------------------------------------------------|-----------------|----------------------|
B---------3-------1-------------------------------|-----------------|----------------------|
G-------2---2---2---2---2-3-2---2---------2-------|-------0-2h3-0---|-------0-2------------|
D-0---3-------3-------3-------3---------3---3---3-|-----2---------2-|-----2----------------|
A-------------------------------------3-------3---|-0---------------|-0--------------------|
E---------------------------------3---------------|-----------------|----------------------|

Gtr. 2
E[1]-------------[1]-----[5]----------------------|[5]--------------|[0]-------------------|
B--------------------------------[1]--------------|--------[5]------|--------[1]-----------|
G-------------------------------------------------|-----------------|----------------------|
D-------------------------------------------------|-----------------|----------------------|
A-------------------------------------------------|-----------------|----------------------|
E-------------------------------------------------|-----------------|----------------------|


Verse

Gtr. 1                                             1.                2.
E-------------------------------------------------|-----------------|----------------------|
B---------3-------1-------------------------------|-----------------|----------------------|
G-------2---2---2---2---2-3-2---2---------2-------|-------0-2h3-0---|-------0-2------------|
D-0---3-------3-------3-------3---------3---3---3-|-----2---------2-|-----2----------------|
A-------------------------------------3-------3---|-0---------------|-0--------------------|
E---------------------------------3---------------|-----------------|----------------------|

Gtr. 2
E---------1-------0-------1---------------1-----------------5------------------------------|
B-------2---2---2---2---2---2---2-------1---1-------------5---5----------------------------|
G-----3-------3-------3-------3-------2-------2---------6-------5--------------------------|
D-0----------------------------------------------------------------------------------------|
A---------------------------------------------------0--------------------------------------|
E---------------------------------3--------------------------------------------------------|
Tap to rate this tab
# A B C D E F G H I J K L M N O P Q R S T U V W X Y Z