Song name
# A B C D E F G H I J K L M N O P Q R S T U V W X Y Z

Mustard Plug - Lolita tab

-------------------------------------------------------------------------------
			     Lolita - Mustard Plug
-------------------------------------------------------------------------------
Tabbed by: Steve Novoselac
Email:ScaleOvenStove@gmail.com

Tuning: normal


Verse (ska like)

   A     F#    D     E

e--5-----2-----5-----7-----|
B--5-----2-----7-----9-----|
G--6-x4--3-x4--7-x4--9-x4--|
D--7-----4-----7-----9-----|
A--7-----4-----5-----7-----|
E--5-----2-----------------|


chorus (distored)

Every time that were together...
    D	    E	 
e--------------------------|
B--------------------------|
G--77777---99999-----------|
D--77777---99999-----------|
A--55555---77777-----------|
E--------------------------|


I get a feeling that could never be better
    A	    F#	   
e-----------------------|
B-----------------------|
G-----------------------|
D--77777---44444--------|
A--77777---44444--------|
E--55555---22422--------|

Your love just blows me away....
e-------------------------------|
B-------------------------------|
G--77777---99999----------------|
D--77777---99999---77777777777--|
A--55555---77777---77777777777--|
E------------------55555555555--|
		   pm- -- --
Tap to rate this tab
# A B C D E F G H I J K L M N O P Q R S T U V W X Y Z