Song name
# A B C D E F G H I J K L M N O P Q R S T U V W X Y Z

Mustasch - Bring Me Everyone tab

MUSTASCH - BRING ME EVERYONE TABS



|----------------------------------------------------------------------------|
|----------------------------------------------------------------------------|
|----------------------------------------------------------------------------|
|----------5-------------7-------------5-----------7---7-7--9----------------|
|----------5-------------7-------------5-----------7---7-7--9----------------|
|--0-0-0-0---0-0-0-0-0-0---0-0-0-0-0-0---0-0-0-0-0---0-----------------------|


And the riff which is played with chorus... i think it's played somehow like this:

|----------------------------------------------------------------------------|
|----------------------------------------------------------------------------|
|----------------------------------------------------------------------------|
|----------------------------------------------------------------------------|
|----------------------------------------------------------------------------|
|---7---7-9-7--7-5-5--5-7-5--------------------------------------------------|

i'm sure that this is not the best way to play these riffs but this is only what i got :)
Tap to rate this tab
 
# A B C D E F G H I J K L M N O P Q R S T U V W X Y Z