Song name
# A B C D E F G H I J K L M N O P Q R S T U V W X Y Z

Mustasch - Speed Metal tab

Okay, so I was disturbed when this song wasn't tabbed out yet, so I sat down and quickly 
transcripted the main riffs. There are alot of other nice details to this song that I 
simply don't have the time to listen out now.

Intro/Chorus:

About 7x
E |----------------------------------------------------|
B |----------------------------------------------------|
G |*-------------------------------------5------------*|
D |*-7-----------7--------7--------7-----------5--7---*|
A |--5--5--5--5-----5--5-----5--5-----5----------------|
E |----------------------------------------------------|

Then:
|----------------------------------------------------|
|----------------------------------------------------|
|----------------------------------------------------|
|--7-----------7--------7-----7--7--6--6--5--5-------|
|--5--5--5--5-----5--5-----5-------------------------|
|----------------------------------------------------|

"I could die..."
3x
|----------------------------------------------------|
|----------------------------------------------------|
|*-5s-7-----7--7-----7--7-----7-----7--7-----7--7----|
|*-5s-7-----7--7-----7--7-----7-----7--7-----7--7----|
|--3s-5-----5--5-----5--5-----5-----5--5-----5--5----|
|----------------------------------------------------|

----------------------------------------------------|
----------------------------------------------------|
--5s-7-----7--7-----7--7---------------------------*|
--5s-7-----7--7-----7--7-----7--7--6--6--5--5------*|
--3s-5-----5--5-----5--5----------------------------|
----------------------------------------------------|

"And I feel I gotta..."
3x
|----------------------------------------------------|
|----------------------------------------------------|
|*-7------------------------------------------------*|
|*-7--------7--------8L-----------------------------*|
|--5--------7--------8L------------------------------|
|-----------5--------6L------------------------------|

2x
|----------------------------------------------------|
|----------------------------------------------------|
|*-5--5-----5--5-----5--5-----5-----5--5-----5--5---*|
|*-5--5-----5--5-----5--5-----5-----5--5-----5--5---*|
|--3--3-----3--3-----3--3-----3-----3--3-----3--3----|
|----------------------------------------------------|

"Speeeeeeeeed..."
3x
E |----------------------------------------------------|
B |----------------------------------------------------|
G |*-------------------------------------5------------*|
D |*-7-----------7--------7--------7-----------5--7---*|
A |--5--5--5--5-----5--5-----5--5-----5----------------|
E |----------------------------------------------------|


|----------------------------------------------------|
|----------------------------------------------------|
|----------------------------------------------------|
|--7-----------7--------7-----7--7--6--6--5--5-------|
|--5--5--5--5-----5--5-----5-------------------------|
|----------------------------------------------------|

That's the main layout of the song. Of course there are alot of modifications and 
variations, but I'll leave them up to you. :)

Enjoy!
Tap to rate this tab
# A B C D E F G H I J K L M N O P Q R S T U V W X Y Z