Song name
# A B C D E F G H I J K L M N O P Q R S T U V W X Y Z

Mustasch - Double Nature tab

Mustasch - Double Nature
Tabs by joneisteras
"rhytm guitar only"

Tuning: DADGHE (dropped D)

:: INTRO :: Clean


Guitar 1

E|----------------------|
H|----------------------|
G|----------------------|
D|----------------------|
A|------------3-------5-|
D|-[0]-0--5h7---0-5h7---|

Guitar 2

E|------5---8-----7------5------|
H|----6---6---6------6------6---|
G|-7------------7------7------7-|
D|------------------------------|
A|------------------------------|
D|------------------------------|


:: Riff A :: Overdrive

Both guitars
   ___      _____   ___   ___    
  /   3times     \ /   4th   \   
E|----------------|-----------|   
H|----------------|-----------|
G|7--7------------|-7--7-5--5-|    
D|7--7------------|-7--7-5--5-|
A|5--5------------|-5--5-3--3-|
D|0--0-0-0-000000-|-0--0x----x|


:: Riff B :: (Chorus) Overdrive

Both guitars
   __________       ________________
  /           5times                \
E|-----------------------------------|-------|
H|-----------------------------------|-------|
G|-----------------------------------|-------|
D|-----------------------------------|-7-----|
A|-----------------------------------|-7-----|
D|-0--3h5-0-5h7-0-7h8-0-8h10-0-10h12-|-7-----|
Tap to rate this tab
# A B C D E F G H I J K L M N O P Q R S T U V W X Y Z