Song name
# A B C D E F G H I J K L M N O P Q R S T U V W X Y Z

Mute Math - Electrify tab

INTRO 

Electric 2
(repeatedly)
E|---------------------|
B|---------------------|
G|---16---16-----------|
D|---x----x------------|
A|---14---14-----------|
D|-9----5----2-2222222-|

Electric 1
(add in,listen to song) (delay)
E|---------------------------|
B|----12----12----12----12bb-|
G|-12----12----12----12------|
D|---------------------------|
A|---------------------------|
D|---------------------------|

Electric 3
(listen to song for timing)
E|------------------------|
B|------------------------|
G|------------------------|
D|-12\\\----12\\\----9\\\-|
A|------------------------|
D|------------------------|

VERSE (play intro)

PRE-CHORUS

Electric 1

E|--------------------|
B|--------------------|
G|-141414141414-16-11-|
D|--------------------|
A|--------------------|
D|--------------------|

CHORUS

Electric 1
(pick as you see fit)
E|-14-|
B|-15-|
G|-16-|
D|----|
A|----|
D|----|

Electric 2

E|-------|
B|-------|
G|-------|
D|-9-5-2-|
A|-9-5-2-|
D|-9-5-2-|

VERSE (part 1)

Electric 1

E|--------------------|
B|--------------------|
G|--------------------|
D|---121212---12---12-|
A|--------------------|
D|-9--------9----9----|

VERSE (part 2)

Electric 1

E|--------------------|
B|--------------------|
G|--------------------|
D|---121212---12---12-|
A|--------------------|
D|-9--------9----9----|

Electric 2

E|-------|
B|-------|
G|-------|
D|-9-7-5-|
A|-9-7-5-|
D|-9-7-5-|

BRIDGE/SOLO

Electric 1
(some notes played more than once)
E|------------------------------------------------------
B|------------------------------------------------------
G|-14-16-11----11--------------9-11-9---------9-11-9----
D|----------14----14-12-9-9-12--------12-9-12--------12-
A|------------------------------------------------------
D|------------------------------------------------------
(repeatedly play this part)
-----------------|
-----------------|
-------9-11-9----|
--9-12--------12-|
-----------------|
-----------------|

Electric 2 
(listen for when 
this is played)
E|-10-|
B|-12-|
G|-11-|
D|----|
A|----|
D|----|

BRIDGE/SOLO (part 2)

Electric 1

E|-----------------|
B|-----------------|
G|-------9-11-9----|
D|--9-12--------12-|
A|-----------------|
D|-----------------|

Electric 2

E|------------------12\10/12\10-|
B|-12-xabout20-12bb-------------|
G|------------------------------|
D|------------------------------| x4
A|------------------------------|
D|------------------------------|

BRIDGE/SOLO (part 3)

Electric 1

E|-14-|
B|-15-|
G|-16-|
D|----|
A|----|
D|----|

CHORUS
Tap to rate this tab
 
# A B C D E F G H I J K L M N O P Q R S T U V W X Y Z