Song name
# A B C D E F G H I J K L M N O P Q R S T U V W X Y Z

Mute Math - Noticed tab

this is a modified version of version 2
not sure that was by
I put it in d, makes it easier to play
it also had ya stretching all the way to the 4th fret during the prechorus when it was 
same note, plus it seems to go down whilst at the same time carrying that chord ..
anyway only a modifcation , rate and let me know if its wrong lol

Intro and Verse riff:
e|----------------------------------------------------|
B|----------------------------------------------------|
G|----------------------------------------------------|
D|----------------------------------------------------|
A|--------8--6--8-----8--6--8----8--6--8----8-6-8-6---|
D|---8-6-----------6----------6----------6------------|
"Careful when you open..."
e|----------------------------------------------------|
B|----------------------------------------------------|
G|----------------------------------------------------|
D|----------------------------------------------------|
A|-------8--6--8----8--6--8----8--6--8----8--6--8-----|
D|--6/8----------8----------8----------8--------------|

Pre-Chorus riff:
e|------------------|
B|------6----6------|
G|---8-------8------|    2x
D|--8-------8----8--|
A|------------------|
D|------------------|
"and all this time.."

Chorus riff:
e|------------------------------------|
B|66666666-66666666-------------------|
G|66666666-88888888-88888888-66666666-|
D|------------------88888888-88888888-|    4x
A|------------------------------------|
D|------------------------------------|
"You are reaching for..."

Verse riff
Chorus riff
Verse riff

Solo:
e|------------------------------------|
B|66666666-66666666-------------------|
G|66666666-88888888-88888888-66666666-|
D|------------------88888888-88888888-|
A|------------------------------------|
D|------------------------------------|

e|--------------------------------------------|
B|66666666-66666666-1010101010101010-99999999-|
G|66666666-88888888--8-8-8-8-8-8-8-8-88888888-|
D|--------------------------------------------|
A|--------------------------------------------|
D|--------------------------------------------|

e|-------------------------------------------|
B|66666666-66666666-111111111111111-99999999-|
G|66666666-88888888-8-8-8-8-8-8-8-8-66666666-|
D|-------------------------------------------|    2x
A|-------------------------------------------|
D|-------------------------------------------|
Tap to rate this tab
# A B C D E F G H I J K L M N O P Q R S T U V W X Y Z