Mutemath - Spotlight tab

Verses and intro
Starts out mellow then gets funky with some muting.

|----------------------------|
|----------------------------|
|----7----7---7----------7---| x a bunch
|--0---10--------10---7------|
|-----------8----------------|
|----------------------------|
or
|----------------------------|
|----------------------------|
|----7--5--7---7--5---7------| x a bunch (He actually plays it this way.)
|--0----------------7--------|
|------------8---------------|
|----------------------------|

and as the song goes on it gets funkier and turns into this.

|--x-x--x--x-x-x--x-x-x--|
|--x-x--x--x-x-x--x-x-x--|
|--x-7--5--7-x-7--5-x-7--|
|--0-x--x--x-x-x--x-7-x--|
|--x-x--x--x-8-x--x-x-x--|
|--x-x--x--x-x-x--x-x-x--|

|--x-x-xxx-x---x---xx---xx-----|
|--x-x-xxx-x---x---xx---xx-----|
|--x-7-555-7---x---xx---xx-----|
|--0-x-xxx-x---x---xx---xx-----|
|--x-x-xxx-x--(5)-(55)-(55)----|
|--x-x-xxx-x---x---xx---xx-----|

Pre Chorus
|--------------------------------|
|--------------------------------|
|--7777777777777777777777777-----|
|--xxxxxxxxxxxxxxxxxxxxxxxxx-----|
|--5555555555555555555555555-----|
|--------------------------------|

x=mute
()=ghost note



Chorus same as verse repeat and done. simple.
Tap to rate this tab
 
# A B C D E F G H I J K L M N O P Q R S T U V W X Y Z