Song name
# A B C D E F G H I J K L M N O P Q R S T U V W X Y Z

Mutemath - Blood Pressure tab

INTRO:                       VERSE: 11x
e|--------------------------|----------------------------| 
B|-20b(22)20-------------20-|----------------------------|
G|-----------19-17-19-19----|----------------------------|
D|--------------------------|-----------3----5/7-5-3-----|
A|--------------------------|-3-5-3-5-5--------------5-3-|
E|--------------------------|----------------------------|


CHORUS: 4x
e|----------|
B|----------|
G|-775-775-7|
D|-775-775-7|
A|-553-553-5|
E|----------|


VERSE: 9x                      RANDOM VERSE RIFF (Listen to find)
e|----------------------------|--------------------------|
B|----------------------------|--------------------------|
G|----------------------------|--------------------------|
D|-----------3----5/7-5-3-----|--------------------------|
A|-3-5-3-5-5--------------5-3-|-5/10-9-10-9-7------------|
E|----------------------------|--------------------------|


PRE-CHORUS: (Same as Intro)
e|--------------------------|
B|-20b(22)20-------------20-|
G|-----------19-17-19-19----|
D|--------------------------|
A|--------------------------|
E|--------------------------|


CHORUS: 4x
e|----------|
B|----------|
G|-775-775-7|
D|-775-775-7|
A|-553-553-5|
E|----------|


INTERLUDE: 2x
e|-------------------------|---|
B|-------------------------|---|
G|-------------------------|---|
D|-------------------------|-5-|
A|-12~~~~~11~~~~10~~~13~~~-|-5-|
E|-------------------------|-3-|


CHORUS: 2x   CHORUS 2: 2x
e|----------|----------|  ]
B|----------|----------|  ]\
G|-775-775-7|-553-553-5|  ] 3x and end on Chorus
D|-775-775-7|-553-333-5|  ]/
A|-553-553-5|-331-331-3|  ]
E|----------|----------|  ]


If you have any questions contact me at fireballcurt@att.net
Tap to rate this tab
 
# A B C D E F G H I J K L M N O P Q R S T U V W X Y Z