Song name
# A B C D E F G H I J K L M N O P Q R S T U V W X Y Z

Mutemath - Allies tab

Hey guys, first tab, wanted to play this awesome tune, saw no tabs so worked it out kind of.
Well it's something to start with anyway to get the general gist of the song :), Ad.

Intro
e|--------------------------------|
b|--------------------------------|
g|--------------------------------|  x4
d|-------12-14------12-14---------|
a|-10h12--------10-12-------------|
E|--------------------------------|

e|------------------------------------------------------------|
b|------------------------------------------------------------|
g|-------------------------------10-10--7--7--7-7-7-7-7-------|
d|--7-7--10--10--10-10-10-10-10--10-10--7--7--7-7-7-7-7-------|
a|--7-7--10--10--10-10-10-10-10---8--8--5--5--5-5-5-5-5-------|
E|--5-5---8---8---8--8--8--8--8-------------------------------|

e|--------------------------------|
b|--------------------------------|
g|--5------------5--7~--77--------|
d|--5--3~--33----5--7~--77--------|
a|--3--3~--33----3--5~--55--------|
E|-----1~--11---------------------|

Verse
e|------------------------------------------------------------|
b|------------------------------------------------------------|
g|------------------------------------------------------------| x2
d|------------14-12-10-12-10----------------------------------|
a|------3/12~----------------12-10-10h12---12-10--------------|
E|--3h5------------------------------------------12--12-10-8--|

e|------------------------------------------------------------|
b|------------------------------------------------------------|
g|------------------------------------------------------------|
d|------------15-13-11-13-11----------------------------------|
a|------4/13~----------------13-11-11h13---13-11--------------|
E|--4h6------------------------------------------13--13-11-9--|

e|------------------------------------------------------------|
b|------------------------------------------------------------|
g|------------------------------------------------------------|
d|------------14-12-10-12-10----------------------------------|
a|------3/12~----------------12-10-10h12---12-10--------------|
E|--3h5------------------------------------------12--12-10-8--|

Chorus (x2)
e|------------------------------------------------------------|
b|------------------------------------------------------------|
g|-------------------------------10-10--7--7--7-7-7-7-7-------|
d|--7-7--10--10--10-10-10-10-10--10-10--7--7--7-7-7-7-7-------|
a|--7-7--10--10--10-10-10-10-10---8--8--5--5--5-5-5-5-5-------|
E|--5-5---8---8---8--8--8--8--8-------------------------------|

e|--------------------------------|
b|--------------------------------|
g|--5------------5--7~--77--------|
d|--5--3~--33----5--7~--77--------|
a|--3--3~--33----3--5~--55--------|
E|-----1~--11---------------------|

Verse
Chorus

Bridge (or whatever it is)
e|----------------------------------|
b|----------------------------------|
g|--5----------------5--7--77777777-|
d|--5--3--33333333---5--7--77777777-|
a|--3--3--33333333---3--5--55555555-|
E|-----1--11111111------------------|

Chorus
Bridge

Sorry if it's not quite the right structure, and sorry no solo,
was a 5 minute job so no time to work it out! Time to party! :D
Tap to rate this tab
# A B C D E F G H I J K L M N O P Q R S T U V W X Y Z