Song name
# A B C D E F G H I J K L M N O P Q R S T U V W X Y Z

Mutiilation - Through The Funeral Maelstrom Of Evil tab

----------------------------------------------------------------------------
	THROUGH THE FUNERAL MAELSTROM OF EVIL - Mutiilation
----------------------------------------------------------------------------
Tabbed by: Anonymous


Tuning: Standard

MAIN RIFF
(tremelo picking)

e|--------------------------------------------------------------|
B|--------------------------------------------------------------|
G|--------------------------------------------------------------|  x2
D|----------6----------------------------------4-----------4----|
A|---4-------------4------7------3------6-------------6---------|
E|--------------------------------------------------------------|

e|--------------------------------------------------------------------------|
B|--------------------------------------------------------------------------|
G|--------------------------------------------------------------------------|
D|----------4---------------------------------------------------------------|
A|-------------7--6--------6------------------------------------------------|
E|---5---------------------4------------------------------------------------|

2ND RIFF
(tremelo picking)

e|--------------------------------------------------------------------------|
B|--------------------------------------------------------------------------|
G|--------------------------------------------------------------------------|
D|---8--------9---8---6--------4---6---4--------3--------4--------3---------|
A|---6--------6---6---4--------2---2---2--------1--------1--------1---------|
E|--------------------------------------------------------------------------|

3RD RIFF

e|---------------------------------------------------------------------------|
B|---------------------------------------------------------------------------|
G|---------------------------------------------------------------------------|
D|---9--9--9--9--9--9--9--9/8--8--8--8--8--8--8--8--8/7--7--7--7--7--7--7--7-|
A|---7--7--7--7--7--7--7--7/6--6--6--6--6--6--6--6--6/5--5--5--5--5--5--5--5-|
E|---------------------------------------------------------------------------|

e|--------------------------------------------------------------------------|
B|--------------------------------------------------------------------------|
G|--------------------------------------------------------------------------|
D|--7/6--6--6--6--6\7--7--7--7--7\9-----------------------------------------|
A|--5/4--4--4--4--4\5--5--5--5--5\7-----------------------------------------|
E|--------------------------------------------------------------------------|

Mutiilation Official Webpage
http://www.myspace.com/meyhnach666


| /  slide up
| \  slide down
| h  hammer-on
| p  pull-off
| ~  vibrato
| +  harmonic
| x  Mute note
============================================================================
Tap to rate this tab
 
# A B C D E F G H I J K L M N O P Q R S T U V W X Y Z