Guitaretab - guitar tabs
Song name
# A B C D E F G H I J K L M N O P Q R S T U V W X Y Z

Mutilator - Blood Storm tab

Band: MUTILATOR
Album: IMMORTAL FORCE
Song: BLOOD STORM

Copyright (c) Cogumelo Records (1987)
Version 1.0 - July 15, 2004

Transcribed By: Tony Baranowski
Email: ezurate@sbcglobal.net

Tunning: Standard

^ = palm-muting
\ = legato slide
( = sustained/ghost notes
h = hammer-on

||---Intro-------------------------------||
||o-------------------------------------o||
||---------------------------------------||
||---------------------------------------||
||o-------2-3-----4-5-----2-3-----2-3---o||
||----0-0-----0-0-----0-0-----0-0--------||
      ^ ^     ^ ^ ^   ^ ^     ^ ^ ^

||---Riff-A---------------------------|-----------------------------------
||o-----------------------------------|-----------------------------------
||------------------------------------|-----------------------------------
||------------------------------------|-----------------------------------
||o------2-3-----4-5-----2-3-----2-3--|-----2-3-----4-5-----2-3-----2-3---
||---0-0-----0-0-----0-0-----0-0------|-0-0-----0-0-----0-0-----0-0-------
||   ^ ^     ^ ^ ^   ^ ^     ^ ^ ^    | ^ ^     ^ ^ ^   ^ ^     ^ ^ ^
||---Riff-A2-(Guitar-#2)--------------|-----------------------------------
||o-----------------------------------|-----------------------------------
||------------------------------------|-----------------------------------
||---9----------------------------(9)-|-10---------------------------(10)-
||o--7----------------------------(7)-|-8----------------------------(8)--
||------------------------------------|-----------------------------------


||------------------------------------|--------------------End-Riff-A------||
||------------------------------------|-----------------------------------o||
||------------------------------------|------------------------------------||
||------------------------------------|------------------------------------||
||-------2-3-----4-5-----2-3-----2-3--|-----2-3-----4-5-----2-3-----2-3---o||
||---0-0-----0-0-----0-0-----0-0------|-0-0-----0-0-----0-0-----0-0--------||
||   ^ ^     ^ ^ ^   ^ ^     ^ ^ ^    | ^ ^     ^ ^ ^   ^ ^     ^ ^ ^      ||
||------------------------------------|--------------------End-Riff-A2-----||
||------------------------------------|-----------------------------------o||
||------------------------------------|------------------------------------||
||---12--------------------------(12)-|-10---------------------------(10)--||
||---10--------------------------(10)-|-8----------------------------(8)--o||
||------------------------------------|------------------------------------||
[ Tab from: http://www.guitaretab.com/m/mutilator/316727.html ]
||----Riff-B----------------------------------------||
||o------------------------------------------------o||
||--------------------------------------------------||
||----9----------------9---9----------------10-7----||
||o---7-7777-7777-77-7-7---7-7777-7777-77-7-8--5---o||
||--------------------------------------------------||
        ^^^^ ^^^^ ^^ ^       ^^^^ ^^^^ ^^ ^

||----Riff-C-------------------------------------||
||o---------------------------------------------o||
||-----------------------------------------------||
||-----------4--------4-7--------4--------2-5----||
||o---0000-0-2-0000-0-2-5-0000-0-2-0000-0-0-3---o||
||-----------------------------------------------||
      ^^^^ ^   ^^^^ ^     ^^^^ ^   ^^^^ ^

||----Chorus-----------------------------||
||o-------------------------------------o||
||---------------------------------------||
||---------------------------------------||
||o---1-1-1-1-0-0-0-0-3-3-3-3-2-2-2-2---o||
||---------------------------------------||


||----Riff-D------------------------------------------||
||o--------------------------------------------------o||
||----------------------------------------------------||
||-------------------10-9-7------------------7-4-2----||
||o--------2---------8--7-5--------2---------5-2-0---o||
||----0000-0000-0000----------0000-0000-0000----------||
      ^^^^  ^^^ ^^^^          ^^^^  ^^^ ^^^^

||----Riff-E-----------------------------------------||
||o-------------------------------------------------o||
||---------------------------------------------------||
||-------------2---------------------2---------------||
||o------2-3-5------------2----2-3-5------------2---o||
||----00---------00-2-3-5---00---------00-2-3-5------||
      ^^         ^^         ^^         ^^

||----Riff-F-------------------------||
||o---------------------------------o||
||-----------------------------------||
||-----------------------------------||
||o------6h7----4h5----2h3----------o||
||----00-----00-----00-----00-4h5----||
      ^^     ^^     ^^     ^^

||----Riff-G---------------------------||
||o-----------------------------------o||
||-------------------------------------||
||---------7-----10\9------7------5----||
||o--------5------8\7------5------3---o||
||----0000---0000-----0000---0000------||

|---Out------------------------------|
|------------------------------------|
|------------------------------------|
|---9------(9)-with------------------|
|---7------(7)------feedback---------|
|---0------(0)---------------noise---|





Full Score Arrangement:
Intro: 2
Riff A: 3
Riff B: 8
Riff C: 4
Chorus: 8
Riff C: 4
Chorus: 8
Riff D: 2
Riff E: 2
Riff F: 4
Riff G: 12
Chorus: 8
Riff B: 4 (solo)
Riff A2: 2 (out)
END
Blood Storm chords by Mutilator