Song name
# A B C D E F G H I J K L M N O P Q R S T U V W X Y Z

Mutya Buena - Real Girl Acoustic tab

--------------------------------------------------------------------------
	      REAL GIRL (Acoustic Version) - Mutya Buena
--------------------------------------------------------------------------
Tabbed by: spithray
Email: spithray@ hotmail.com

Tuning: Standard

e|---0----0----0----5----8----7--------------------------------------------|
B|---0----0----0----5----8----7--------------------------------------------|
G|---9----8----7----6----9----8--------------------------------------------|
D|---9----9----9----7----10---9--------------------------------------------|
A|---7----7----7----7----10---9--------------------------------------------|
E|------------------5----8----7--------------------------------------------|

The whole song is basically that sequence repeated with slight strumming variations.  
the last two chords are played as A shape bar chords on 3rd and 2nd fret instead, although 
position of these variations changes depending on the version you've got.

Mutya (formerly a Sugababe) has her own website: www.mutyamusic.com

spithray.
Tap to rate this tab
# A B C D E F G H I J K L M N O P Q R S T U V W X Y Z