Song name
# A B C D E F G H I J K L M N O P Q R S T U V W X Y Z

Mvp - Roc Ya Body tab

#---------------------------------PLEASE NOTE----------------------------------#
#This file is the author's own work and represents their interpretation of the #
#song. You may only use this file for private study, scholarship, or research. #
#------------------------------------------------------------------------------#


Title: Roc Ya Body
Artist: MVP
Album: 

Instrument: 6 String Guitar

Tabbed by: Gary ()

Tuning: Standard (E A D G B E)

i like the guitar bit in this song so i tabbed it 

      Bm        Cm
E|-2---2---2----3-3---||
B|-3---3---3----4-4---||
G|-4---4---4----5-5---|| x2
D|-4---4---4----5-5---||
A|-2---2---2----3-3---||
E|-x---x---x----x-x---||


then i like to play it like this
          Bm           Cm
E|-2-x-x-2-x-x-2-x-x-3-x-3---||
B|-3-x-x-3-x-x-3-x-x-4-x-4---||
G|-4-x-x-4-x-x-4-x-x-5-x-5---||
D|-4-x-x-4-x-x-4-x-x-5-x-5---||
A|-2-----2-----2-----3---3---||
E|-x-----x-----x-----x---x---||



Key:
h = hammer on
p = pull off
s = quick slide
/ = slide up
\ = slide down
x = dead note
~ = vibrato
b = bend
Tap to rate this tab
# A B C D E F G H I J K L M N O P Q R S T U V W X Y Z