Song name
# A B C D E F G H I J K L M N O P Q R S T U V W X Y Z

Mxpx - Take On Me tab

Take On Me – MxPx
----------------------------------------------------------------------

Tabbed By Juan Camilo Lopez-Carreño

********************
*** 100% CORRECT ***
********************


Tuning: Standard E


This are the correct riffs, the other ones are wrong. Check them out!

Intro
e|----------------------|----------------------|
B|----------------5-6-8-|-6-6------------------|
G|-7-------5-5--5-------|-----5---7-7--7-5-7-5-|
D|---8-5-5--------------|-------8--------------|	x2
A|----------------------|----------------------|
E|----------------------|----------------------|


Verse
e|--------------------------------------------|
B|--------------------------------------------|
G|----------5-555555--------------------------|
D|-5-555555-5-555555-3-333333-8-888-7-777-----|	x2
A|-5-555555-3-333333-3-333333-8-888-7-777-----|
E|-3-333333----------1-111111-6-666-5-555-----|
PM   ......   ......   ......   ...   ...

e|------------------------------------------|
B|------------------------------------------|
G|----------5-555555-77777777-33333333------|
D|-5-555555-5-555555-77777777-33333333------|
A|-5-555555-3-333333-55555555-11111111------|
E|-3-333333---------------------------------|
PM   ......   ......

Chorus
e|-----------------------------------------|
B|-----------------------------------------|
G|---------5555555-7777777-3333333---------|
D|-3333333-5555555-7777777-3333333---------|	x2
A|-3333333-3333333-5555555-1111111---------|
E|-1111111---------------------------------|

This part goes a little bit slowly
e|-----------------------------|
B|-----------------------------|
G|------5555-7777-3333---------|
D|-3333-5555-7777-3333---------|
A|-3333-3333-5555-1111---------|
E|-1111------------------------|

e|-------------------------------------|
B|-------------------------------------|
G|---------5555555-3333333-5555555-----|
D|-3333333-5555555-3333333-5555555-----|
A|-3333333-3333333-1111111-3333333-----|
E|-1111111-----------------------------|

Verse
e|--------------------------------------------|
B|--------------------------------------------|
G|----------5-555555--------------------------|
D|-5-555555-5-555555-3-333333-8-888-7-777-----|	x2
A|-5-555555-3-333333-3-333333-8-888-7-777-----|
E|-3-333333----------1-111111-6-666-5-555-----|
PM   ......   ......   ......   ...   ...


e|------------------------------------------|
B|------------------------------------------|
G|----------5-555555-77777777-33333333------|
D|-5-555555-5-555555-77777777-33333333------|
A|-5-555555-3-333333-55555555-11111111------|
E|-3-333333---------------------------------|
PM   ......   ......


Chorus
e|-----------------------------------------|
B|-----------------------------------------|
G|---------5555555-7777777-3333333---------|
D|-3333333-5555555-7777777-3333333---------|	x2
A|-3333333-3333333-5555555-1111111---------|
E|-1111111---------------------------------|

This part goes a little bit slowly
e|-----------------------------|
B|-----------------------------|
G|------5555-7777-3333---------|
D|-3333-5555-7777-3333---------|
A|-3333-3333-5555-1111---------|
E|-1111------------------------|

e|-------------------------------------|
B|-------------------------------------|
G|---------5555555-3333333-5555555-----|
D|-3333333-5555555-3333333-5555555-----|
A|-3333333-3333333-1111111-3333333-----|
E|-1111111-----------------------------|

Bridge
e|------0-----0------------|
B|---1-----1-----1-4---1-4-|
G|-2-----2-----5-----5-----|
D|-------------------------|	x2
A|-------------------------|
E|-------------------------|

e|------------|
B|------------|
G|------------|
D|--8------5--|
A|------------|
E|------------|

Intro
e|------------------------|
B|----------------5-6-8---|
G|-7-------5-5--5---------|
D|---8-5-5----------------|	X3
A|------------------------|
E|------------------------|

e|----------------------|----------------------|---------------------|
B|-6-6------------------|----------------5-6-8-|-6-6-----------------|
G|-----5---7-7--7-5-7-5-|-7-------5-5--5-------|-----5---7-7--7-5-7-5|
D|-------8--------------|---8-5-5--------------|-------8-------------|
A|----------------------|----------------------|---------------------|
E|----------------------|----------------------|---------------------|

Verse
e|--------------------------------------------|
B|--------------------------------------------|
G|----------5-555555--------------------------|
D|-5-555555-5-555555-3-333333-8-888-7-777-----|	x2
A|-5-555555-3-333333-3-333333-8-888-7-777-----|
E|-3-333333----------1-111111-6-666-5-555-----|
PM   ......   ......   ......   ...   ...

e|------------------------------------------|
B|------------------------------------------|
G|----------5-555555-77777777-33333333------|
D|-5-555555-5-555555-77777777-33333333------|
A|-5-555555-3-333333-55555555-11111111------|
E|-3-333333---------------------------------|
PM   ......   ......

Chorus X3
E|-----------------------------------------|
B|-----------------------------------------|
G|---------5555555-7777777-3333333---------|
D|-3333333-5555555-7777777-3333333---------|	x2
A|-3333333-3333333-5555555-1111111---------|
E|-1111111---------------------------------|

This part goes a little bit slowly
e|-----------------------------|
B|-----------------------------|
G|------5555-7777-3333---------|
D|-3333-5555-7777-3333---------|
A|-3333-3333-5555-1111---------|
E|-1111------------------------|

e|-------------------------------------|
B|-------------------------------------|
G|---------5555555-3333333-5555555-----|
D|-3333333-5555555-3333333-5555555-----|
A|-3333333-3333333-1111111-3333333-----|
E|-1111111-----------------------------|

End
e|-----------------------------------------|
B|-----------------------------------------|
G|---------5555555-7777777-3333333---------|
D|-3333333-5555555-7777777-3333333---------|	x3
A|-3333333-3333333-5555555-1111111---------|
E|-1111111---------------------------------|
PM ....... ....... ....... .......

e|-------------------------------------|
B|-------------------------------------|
G|---------5555555-3333333-5555555-----|
D|-3333333-5555555-3333333-5555555-----|
A|-3333333-3333333-1111111-3333333-----|
E|-1111111-----------------------------|


This song is dedicated to Francy, for all the things she told me about life, for all the 
I’ve lived with her. I Love You Honey.

Any question or correction, please write me to juank_lopez_29@hotmail.com...Have fun
Tap to rate this tab
 
# A B C D E F G H I J K L M N O P Q R S T U V W X Y Z