Guitaretab - guitar tabs
Song name
# A B C D E F G H I J K L M N O P Q R S T U V W X Y Z

Mxpx - Set The Record Straight tab

           "Set The Record Straight"
           MxPx
           "Slowly Going the Way of the Buffalo"
          
           Intro/Verse
           e----------------------------------------------------------------
           b-------------------------------------------------------------7--
           g---------------------6-6-6-6-6-6-6--6-6--7-7-7-7-7-7-7--7-7-----
           d-7-7-7-7-7-7-7--7-7--6-6-6-6-6-6-6--6-6--7-7-7-7-7-7-7--7-7--7--
           a-7-7-7-7-7-7-7--7-7--4-4-4-4-4-4-4--4-4--5-5-5-5-5-5-5--5-5--5--
           e-5-5-5-5-5-5-5--5-5---------------------------------------------
          
           Chorus
          
           e-------------------------------------------------------------------------------
           b-------------------------------------------------------------------------------
           g------------------4-4-4-4-4-4-4-4----------------------------------------------
           d-4-4-4-4-4-4-4-4--4-4-4-4-4-4-4-4-2-2-2-2-2-2-2-2--7-7--6-6--4-4-4-4-4-4-4-4---
           a-4-4-4-4-4-4-4-4--2-2-2-2-2-2-2-2-2-2-2-2-2-2-2-2--7-7--6-6--4-4-4-4-4-4-4-4---
           e-2-2-2-2-2-2-2-2------------------0-0-0-0-0-0-0-0--5-5--4-4--2-2-2-2-2-2-2-2---
          
           e--------------------------------
           b--------------------------------
           g-4-4-4-4-4-4--7-7-7-7--9-9-9-9--
           d-4-4-4-4-4-4--7-7-7-7--9-9-9-9--
           a-2-2-2-2-2-2--5-5-5-5--7-7-7-7--
           e--------------------------------
           
           Easy,Awesome Song
           Matt Nielsen zorg500@hotmail.com
[ Tab from: http://www.guitaretab.com/m/mxpx/126775.html ]
Related for Set The Record Straight tab
×
Set The Record Straight