Song name
# A B C D E F G H I J K L M N O P Q R S T U V W X Y Z

Mxpx - Andrea tab

MxPx: Andrea

                           *= palm pute
intro:2x
e-------------------------------------------------------------|
b-------------------------------------------------------------|
g-5-5--5-5-5--5-5-5--5-5-5------------------------------4-----|
d-5-5--5-5-5--5-5-5--5-5-5-3--5-5--5-5-5--5-5-5--5-5-5--4-----|
a-3-3--3-3-3--3-3-3--3-3-3-3--5-5--5-5-5--5-5-5--5-5-5--2-----|
E--------------------------1--3-3--3-3-3--3-3-3--3-3-3--------|

verse:
e-------------------------------------------------------------|
b-------------------------------------------------------------|
g-5----------------2x-----------2x----------------------------|
d-5-15x-3--5-----4-----3----5--------3-----5-----4------------|
a-3-----1--5-15x-4-----3-8x-5-8x-----3-16x-3-15x-2------------|
E-------1--3-----2-----1----3--------1-----3-----2------------|
intro:2x
e-------------------------------------------------------------|
b-------------------------------------------------------------|
g-5-5--5-5-5--5-5-5--5-5-5------------------------------4-----|
d-5-5--5-5-5--5-5-5--5-5-5-3--5-5--5-5-5--5-5-5--5-5-5--4-----|
a-3-3--3-3-3--3-3-3--3-3-3-3--5-5--5-5-5--5-5-5--5-5-5--2-----|
E--------------------------1--3-3--3-3-3--3-3-3--3-3-3--------|
  * *  * * *  * * *  * * *    * *  * * *  * * *  * * *

verse:1x
intro:1x not muted

chorus:2x

e-------------------------------------------------------------|
b-------------------------------------------------------------|
g-2-----------------------------------------------------------|
d-2-16x--5------3------5--------------------------------------|
a-0------3-16x--3-16x--5-16x----------------------------------|
E--------3------1------3--------------------------------------|

intro:2x not muted

end:
e-------------------------------------------------------------|
b-------------------------------------------------------------|
g-----------2x------------------------------------------------|
d-3----5--------3-----5-----4---------------------------------|
a-3-8x-5-8x-----3-16x-3-15x-2---------------------------------|
E-1----3--------1-----3-----2---------------------------------|
Tap to rate this tab
 
# A B C D E F G H I J K L M N O P Q R S T U V W X Y Z