Song name
# A B C D E F G H I J K L M N O P Q R S T U V W X Y Z

Mxpx - Silver Screen tab

Artist: Mxpx 
Song: The Silver Screen 
Tuning: EADGBe

Tabbed By: Stephen Adams 


Intro 
e|--------------------------------------------|
B|--------------------------------------------|
G|------4----------4--------------------------|
D|---2-----2----2-----2-----------------------|
A|--------------------------------------------|
E|-00--0--0---00--0--0------------------------|


Verse "the screaming was silver..."
e|-------------------------------------------------------|
B|-------------------------------------------------------|
G|------4----------4-------------4---------4-------4-----|
D|---2-----2----2-----2------2------2-----2--2----2--2---|
A|-------------------------00---0--0-----4------2--------|
E|-00--0--0---00--0--0-----------------------------------|


Chorus "on the silver screen..."
e|--------------------------------------------------|
B|--------------------------------------------------|
G|-4--4--1---4--4--1---4--4--2---4--4--1------------|
D|-2--4--2---2--4--2---2--4--2---2--4--2------------|
A|-4--2--2---4--2--2---4--2--0---4--2--2------------|
E|-------0---------0-------------------0------------|


Bridge "I picture a sun setting..."
e|--------------------------------------------------|
B|--------------------------------------------------|
G|-2----4----1----2----2----4----4444444-44444444---|
D|-2----4----2----2----2----4----2222222-44444444---|
A|-0----2----2----0----0----2----4444444-22222222---|
E|-----------0--------------------------------------|


Ending "the curtains would close..."
e|-------------------------------------------|
B|-------------------------------------------|
G|-4--4--2---4--4--1-------------------------|
D|-2--4--2---2--4--2-------------------------|
A|-4--2--0---4--2--2-------------------------|
E|-----------------0-------------------------|


End on 
e|----------------|
B|----------------|
G|---1~-----------|
D|---2~-----------|
A|---2~-----------|
E|---0~-----------|


Order
Intro x2
Verse x2
Intro
Verse x2
Intro
Chorus 
Intro 
Verse x2
Intro 
Chorus 
Verse 
Bridge
Chorus 
Ending 
Intro 
End on


easy song. awesome band. have fun.
Tap to rate this tab
# A B C D E F G H I J K L M N O P Q R S T U V W X Y Z