Song name
# A B C D E F G H I J K L M N O P Q R S T U V W X Y Z

Mxpx - Empire tab

A great song. One of my favourites:P:P

Song order:

Drum intro
Main riff x4
Verse
Pre-chorus x2
Chorus x2
Riff
Riff v1
Riff
Riff v2
Verse
Pre-chorus x2
Chorus x2
Riff
Riff v1
Riff
Riff v2
Bridge
Chorus x4
End on A.

Main riff                        Verse (Sink your teeth into me...)


e-------------------------------|-----|
b-------------------------------|-----|
g---222----------------777------|-~2--|
d---222----02-----333--777------|-~2--|
a---000-023--320--333--555------|-~0--|
E---------------31111-----------|-----|

...please!                 Pre-chorus (We are fallen angels...)

e-------------------------|----------------------------------------------|
b-------------------------|----------------------------------------------|
g---22--xx555-------------|-----------5-55-5555--------101010-999-777----|
d---22--xx555--xx33333333-|-7-77-7777-5-55-5555-3-333---x-x-x-xxx-xxx----|
a---00--xx333--xx33333333-|-7-77-7777-3-33-3333-3-333---8-8-8-777-555----|
E--------------xx11111111-|-5-55-5555-----------1-111--------------------|

Chorus (You are dead...)                    Riff (Just look...)          Riff v1

e------------------------------------------|----------------------------|--------------------------|
b------------------------------------------|----------------------------|--------------------------|
g-2-22-2222-5-55-5555----------------------|-22-xx-101010-22-xx-101010--|-2-2-------22---------22--|
d-2-22-2222-5-55-5555-2-22-2222-5-55-5555--|-22-xx--x-x-x-22-xx--x-x-x--|-2-2----0--22----0----22--|
a-0-00-0000-3-33-3333-2-22-2222-5-55-5555--|-00-xx--8-8-8-00-xx--8-8-8--|-0-0-023-3200-023-320-00--|
E---------------------0-00-0000-3-33-3333--|----------------------------|--------------------------|

Riff v2

e-------------------------------------|
b-------------------------------------|
g-22-999-22-101010-22--777-555-444-2~-|
d-22-xxx-22--x-x-x-22--xxx-xxx-xxx-2~-|
a-00-777-00--8-8-8-00--555-333-222-0~-|
E-------------------------------------|

Bridge (My head turns...)

e-------------|-------------------------------------|
b-------------|-------------------------------------|
g-2~-5--------|-22222222-55555555-------------------|
d-2~-5~-2~-5~-|-22222222-55555555-22222222-55555555-|
a-0~-3~-2~-5~-|-00000000-33333333-22222222-55555555-|
E-------0~-3~-|-------------------00000000-33333333-|


Kedves gyerekek. A kottát becsuljetek meg, mert szar melo lehallgatni, meg szarabb 
Ha nem tetszik, ne irjatok, mert nem erdekel.
TALALJATOK MAR FOL KOTTAIRO PROGRAMOT!!! VAGY HA VAN, KULDJETEK EL LEEEECCCIIIII!!!!!
Eljen Magyarorszag!
Zsofi
Tap to rate this tab
# A B C D E F G H I J K L M N O P Q R S T U V W X Y Z