Song name
# A B C D E F G H I J K L M N O P Q R S T U V W X Y Z

Mxpx - Christmas Party tab

-----------------------------------------------------------------
Christmas Party - MXPX
-----------------------------------------------------------------
Tabbed by: Bair
Email: bair_morritt@hotmail.com
Tuning: Standard

Intro:
e|---------------------------------------------------------------|
B|---------------------------------------------------------------|
G|--777-7-7777--777-7-7777--777-7-7777---------------------------|
D|--777-7-7777--777-7-7777--777-7-7777---------------------------|
A|--555-5-5555--555-5-5555--555-5-5555---------------------------|
E|---------------------------------------------------------------|
"

Verse:
e|---------------------------------------------------------------|
B|---------------------------------------------------------------|
G|--777-7-7777---------------------------------------------------|
D|--777-7-7777--555-5-5555--(X2)--77777777--55555555--(X2)-------|
A|--555-5-5555--555-5-5555--------77777777--55555555-------------|
E|--------------333-3-3333--------55555555--33333333-------------|
"Rather everybody for the Christmas party saturday"

Chorus:
e|---------------------------------------------------------------|
B|---------------------------------------------------------------|
G|------------------77777777--------------------4444-------------|
D|--555555--777777--77777777--(X2)--5555--7777--4444--5555-------|
A|--555555--777777--55555555--------5555--7777--2222--5555-------|
E|--333333--555555------------------3333--5555--------3333-------|
"Everyday I lives a holiday"        "Everytime I sleep"

e|---------------------------------------------------------------|
B|---------------------------------------------------------------|
G|------------------77777777-------------------------------------|
D|--555555--777777--77777777-------------------------------------|
A|--555555--777777--55555555-------------------------------------|
E|--333333--555555-----------------------------------------------|
"Living every day like its a party"

Bridge:
e|---------------------------------------------------------------|
B|---------------------------------------------------------------|
G|--55555555------------777777777777777777777777-----------------|
D|--55555555--55555555--777777777777777777777777-----------------|
A|--33333333--55555555--555555555555555555555555-----------------|
E|------------33333333-------------------------------------------|
"If no one comes, if no one shows"
Tap to rate this tab
# A B C D E F G H I J K L M N O P Q R S T U V W X Y Z