Song name
# A B C D E F G H I J K L M N O P Q R S T U V W X Y Z

Mxpx - Dont Walk Away tab

-----------------------------------------------------------------
Don't Walk Away - MXPX
-----------------------------------------------------------------
Tabbed by: Bair
Email: bair_morritt@hotmail.com

Tuning: Standard


Guitar riff:
e|---------------------------------------------------------------|
B|---------------------------------------------------------------|
G|--------4------------------------------------------------------|
D|----1-4---4--(X4)----------------------------------------------|
A|--2------------------------------------------------------------|
E|---------------------------------------------------------------|

Piano Riff: (Played through out song)
e|-----11-------12-------11-------12-------14--------------------|
B|--------12-------12-------12-------12--------------------------|
G|--11-------11-------11-------11-------11-----------------------|
D|---------------------------------------------------------------|
A|---------------------------------------------------------------|
E|---------------------------------------------------------------|

Intro:
e|---------------------------------------------------------------|
B|---------------------------------------------------------------|
G|---------------------------------------------------------------|
D|--2--(Lets Ring)-----------------------------------------------|
A|--2------------------------------------------------------------|
E|--0------------------------------------------------------------|

Verse:
e|---------------------------------------------------------------|
B|---------------------------------------------------------------|
G|-----4444444444444444------------------------------------------|
D|--2--4444444444444444--2222222222222222--(X6)------------------|
A|--2--2222222222222222--2222222222222222------------------------|
E|--0--------------------0000000000000000------------------------|
"I need to comfort thats in your arms...."

Chorus:
e|---------------------------------------------------------------|
B|---------------------------------------------------------------|
G|--4444444444444444---------------------------------------------|
D|--4444444444444444--2222222222222222--(X2)---------------------|
A|--2222222222222222--2222222222222222---------------------------|
E|--------------------0000000000000000---------------------------|
"So don't walk away, don't turn your back...."

e|---------------------------------------------------------------|
B|---------------------------------------------------------------|
G|---------------------------------------------------------------|
D|--66666666--44444444--2222222222222222-------------------------|
A|--66666666--44444444--2222222222222222-------------------------|
E|--44444444--22222222--0000000000000000-------------------------|
"so don't walk away, don't change your mind...."

-Then Verse
-Then Chorus

Interlude:
e|---------------------------------------------------------------|
B|---------------------------------------------------------------|
G|--66666666------------66666666------------4--------------------|
D|--66666666--44444444--66666666--44444444--4--------------------|
A|--44444444--44444444--44444444--44444444--2--------------------|
E|------------22222222------------22222222-----------------------|
"You are my angel, please don't be afraid...."

-Then Chorus
-End on a B note and let ring

Tap to rate this tab
# A B C D E F G H I J K L M N O P Q R S T U V W X Y Z