Guitaretab - guitar tabs
Song name
# A B C D E F G H I J K L M N O P Q R S T U V W X Y Z
Home / M / Mxpx / Angels tab

Mxpx - Angels tab

Artist: MxPx
Song: Angels
Album: Secret Weapon

Tuning: Standard


Intro:
e|------------------------|
B|------------------------| 
G|------------------------|
D|----------3~-2~---------|
A|-------3~-------3~------|
E|-1~----------------1~---|

e|---------------------------------|
B|---------------------------------|
G|---------------------------------|
D|----3-2--------------------------|
A|---3----3---x4--------8-7----x4--|
E|-1----------------6-8-----8------|
                         or
                  -----------------|
                  -----3-2---------|
                  -1-3-----3---x4--|
                  -----------------|

Verse:
e|------------------------|
B|------------------------|
G|-----------3333355555---|
D|-33333333333333355555---| x2
A|-33333333331111133333---|
E|-1111111111-------------|
Pm .....................


Pre-Chorus:
|---1------------1-------------------|
|-----3-1---1-1----3-1---------------|
|--2------2-----2------2-3~------5~-|
|-3-----------------------3~--3~--5~-|  x2
|-------------------------1~--3~--3~-|
|-----------------------------1~-----|

[ Tab from: http://www.guitaretab.com/m/mxpx/157875.html ]
Chorus:
|-------------------------------------------------------|
|-------------------------------------------------------|
|-3-3-3-3--5-5-5-5----------------3-3-3-3-5-5-5-5-------|
|-3-3-3-3--5-5-5-5----2-3---------3-3-3-3-5-5-5-5--x3---|   
|-1-1-1-1--3-3-3-3---3----3--x2-1-1-1-1-3-3-3-3-------|
|-------------------1-----------------------------------|


Fill:
e|---------------------------------|
B|---------------------------------|
G|---------------------------------|
D|----3-2--------------------------|
A|---3----3---x2--------8-7----x2--|
E|-1----------------6-8-----8------|


Solo:
e|--------------|--------------|--------------|----------------|
B|--------------|--------------|--------------|----------------|
G|--------------|--------------|--------------|-------------3~-|
D|----3-2-------|----3-2-------|-0--3-2-------|------3-2----3~-|
A|--3-----3--x2-|1-3-----3--x2-|--1-----3--x2-|--1-3-----3--1~-|
E|-1------------|--------------|--------------|----------------|


Bridge:
e|---------------------------------------------------------------|
B|---------------------------------------------------------------|
G|-7-7-7-7-7---------------------------------------7~----7~--5~--|
D|-7-7-7-7-7--8-8-8-8-8--3-3-3-3-3--7-7-7-7-7---8~-7~-8~-7~--5~--|
A|-5-5-5-5-5--8-8-8-8-8--3-3-3-3-3--7-7-7-7-7---8~-5~-8~-5~--3~--|
E|------------6-6-6-6-6--1-1-1-1-1--5-5-5-5-5---6~----6~---------|





Related for Angels tab