Song name
# A B C D E F G H I J K L M N O P Q R S T U V W X Y Z

Mxpx - Role Remodeling tab

Role Remodeling
MxPx
Standard Tuning
  
Intro 
G------------------------------------x5|---------------------------------|
D--------------------------------------|---------------------------------|
A--7-7-7-----------3-3-3----5---5------|--7-7-7--------------------------|
E--5-5-5--7-5-3-0--1-1-1--3---3--------|--5-5-5--7-5-3-0--7-5-3-7-5-3-0--|

Verse 
   PM-----------------------------
D--7-7-7-7-7-7-7-7-9-9-9-9-5-5-5-5---x3|--7---7---9--9--9--9--9--9--9--9-|
A--7-7-7-7-7-7-7-7-9-9-9-9-5-5-5-5-----|--7---7---9--9--9--9--9--9--9--9-|
E--5-5-5-5-5-5-5-5-7-7-7-7-3-3-3-3-----|--5---5---7--7--7--7--7--7--7--7-|
       

Chorus
G------------------------------------x3|---------------------------------|
D--------------------------------------|---------------------------------|
A--7-7-7-----------3-3-3----5---5------|--7-7-7--------------------------|
E--5-5-5--7-5-3-0--1-1-1--3---3--------|--5-5-5--7-5-3-0--7-5-3-7-5-3-0--|

Riff 
G------------------------------------x2|---------------------------------|
D--------------------------------------|---------------------------------|
A--7-7-7-----------3-3-3----5---5------|--7-7-7--------------------------|
E--5-5-5--7-5-3-0--1-1-1--3---3--------|--5-5-5--7-5-3-0--7-5-3-7-5-3-0--|

Verse
   PM-----------------------------
D--7-7-7-7-7-7-7-7-9-9-9-9-5-5-5-5---x3|--7---7---9--9--9--9--9--9--9--9-|
A--7-7-7-7-7-7-7-7-9-9-9-9-5-5-5-5-----|--7---7---9--9--9--9--9--9--9--9-|
E--5-5-5-5-5-5-5-5-7-7-7-7-3-3-3-3-----|--5---5---7--7--7--7--7--7--7--7-|


Chorus
G------------------------------------x3|---------------------------------|
D--------------------------------------|---------------------------------|
A--7-7-7-----------3-3-3----5---5------|--7-7-7--------------------------|
E--5-5-5--7-5-3-0--1-1-1--3---3--------|--5-5-5--7-5-3-0--7-5-3-7-5-3-0--|

Bridge x2
G-----------5-5-5-5-------------------|
D--7-7-7-7--3-3-3-3--7-7-7-7--9-9-9-9-|
A--5-5-5-5-----------5-5-5-5--7-7-7-7-|

Chorus
G------------------------------------x5|---------------------------------|
D--------------------------------------|---------------------------------|
A--7-7-7-----------3-3-3----5---5------|--7-7-7--------------------------|
E--5-5-5--7-5-3-0--1-1-1--3---3--------|--5-5-5--7-5-3-0--7-5-3-7-5-3-0--|

Outro (Under this there is a small solo)
G--------------------------------------|
D--------------------------------------| x3
A--7-7-7-----------3-3-3----5---5------|
E--5-5-5--7-5-3-0--1-1-1--3---3--------|


D-------------------5-------5------------------|
A--7-7-7------------3--5-5--3--5--3--5-------7-|
E--5-5-5--7-5-3-0------3-3-----3--1--3-------5-|

This is simple enough!

Please Rate
Tap to rate this tab
# A B C D E F G H I J K L M N O P Q R S T U V W X Y Z