Song name
# A B C D E F G H I J K L M N O P Q R S T U V W X Y Z

Mxpx - Heres To The Life tab

-----------------------------------------------------------------
Heres To The Life - MxPx
-----------------------------------------------------------------
Tabbed by: Bair
Email: bair_morritt@hotmail.com

Tuning: Standard

Intro:
e|--------------------|
B|--------------------|
G|--4444444444444444--|
D|--4444444444444444--|
A|--2222222222222222--|
E|--------------------|

e|-------------------------|
B|-------------------------|
G|--4444----4--------------|
D|--4444-22-4-44-44--(X4)--|
A|--2222-22-2-44-44--------|
E|-------00---22-22--------|

Verse:
e|--------------------------------------------------------------|
B|--------------------------------------------------------------|
G|--44444444------------44444444--------------------------------|
D|--44444444--22222222--44444444--22222222--44444444--22222222--|
A|--22222222--22222222--22222222--22222222--44444444--22222222--|
E|------------00000000------------00000000--22222222--00000000--|
"I, have always tried to find a little place that I can get...."

e|-------------------------|
B|-------------------------|
G|--4444----4--------------|
D|--4444-22-4-44-44--------|
A|--2222-22-2-44-44--------|
E|-------00---22-22--------|

e|--------------------------------------------------------------|
B|--------------------------------------------------------------|
G|--44444444------------44444444--------------------------------|
D|--44444444--22222222--44444444--22222222--44444444--22222222--|
A|--22222222--22222222--22222222--22222222--44444444--22222222--|
E|------------00000000------------00000000--22222222--00000000--|
"And now I'm noticing that there's no clear frequencies, no...."

Pre-Chorus:
e|----------------------------------------------|
B|----------------------------------------------|
G|------------44444444--------------------------|
D|--22222222--44444444--4444444444444444--(X2)--|
A|--22222222--22222222--4444444444444444--------|
E|--00000000------------2222222222222222--------|
"You just gotta make a little place for yourself...."

Chorus:
e|--------------------------------------------------------------------|
B|--------------------------------------------------------------------|
G|--44444444----22--44444444----22--44444444----22--------------------|
D|--44444444-22-22--44444444-22-22--44444444-22-22--4444444444444444--|
A|--22222222-22-00--22222222-22-00--22222222-22-00--4444444444444444--|
E|-----------00--------------00--------------00-----2222222222222222--|
"Here's to the life, that we always never wanted, and somehow we've...."

e|-------------------------|
B|-------------------------|
G|--4444----4--------------|
D|--4444-22-4-44-44--(X2)--|
A|--2222-22-2-44-44--------|
E|-------00---22-22--------|

Verse:
e|---------------|-------------------------------|
B|---------------|-------------------------------|
G|--4------------|--4444----4--------------------|
D|--4-(Let-Ring)-|--4444-22-4-44-44--------------|
A|--2------------|--2222-22-2-44-44--------------|
E|---------------|-------00---22-22--------------|
"I have to know that you're OK. And know that you're here to stay"

e|--------------------------------------------------------------------------------|
B|--------------------------------------------------------------------------------|
G|--44444444------------44444444--------------------------------4444444444444444--|
D|--44444444--22222222--44444444--22222222--44444444--22222222--4444444444444444--|
A|--22222222--22222222--22222222--22222222--44444444--22222222--2222222222222222--|
E|------------00000000------------00000000--22222222--00000000--------------------|
"And now, I take a breath to breathe, I turn around to leave, and get away for a while"

-Then Pre-Chorus
-Then Chorus

Interlude:
e|----------------------------------------------------------------|
B|----------------------------------------------------------------|
G|---------------------44-666666-44-22222222----------------------|
D|--666666-44-22222222-44-666666-44-22222222-66-4444444444444444--|
A|--666666-44-22222222-22-444444-22-00000000-66-4444444444444444--|
E|--444444-22-00000000-----------------------44-2222222222222222--|
"I'm so easy to forgive, except the way I live

Solo:
e|-----------------------------------------------------|
B|--4-5-4-2-0-4---5-4-2-0-2---4-4-4-0-2-0--555-44-2----|
G|--------------------------------------------------4--|
D|-----------------------------------------------------|
A|-----------------------------------------------------|
E|-----------------------------------------------------|

Over-top of Solo:
e|--------------------------------------------------------------------------------|
B|--------------------------------------------------------------------------------|
G|--44444444------------44444444--------------------------------4444444444444444--|
D|--44444444--22222222--44444444--22222222--44444444--22222222--4444444444444444--|
A|--22222222--22222222--22222222--22222222--44444444--22222222--2222222222222222--|
E|------------00000000------------00000000--22222222--00000000--------------------|

-Then Pre-Chorus
-Then Chorus

Outro:
e|------------------------------------------|
B|------------------------------------------|
G|--4444----4-------------------------------|
D|--4444-22-4-44-44--(X4)--4-(Let-Ring)--4--|
A|--2222-22-2-44-44--------4-------------4--|
E|-------00---22-22--------2-------------2--|

----------------------------------------------------------------------------
Lyrics:

I, have always tried to find
A little place that I could get away for a while
And now I'm noticing that there's no clear frequencies, no empty space left on the dial

You just gotta make a little place for yourself
You just gotta take a little time for yourself
Here's to the life, that we always never wanted
And somehow we've forgotten the road we've traveled on
Here's to the life

I have to know that you're OK.
And know that you're here to stay
To know this isn't a trial
And now, I take a breath to breathe
I turn around to leave, and get away for a while

You just gotta make a little place for yourself
You just gotta take a little time for yourself
Here's to the life, that we always never wanted
And somehow we've forgotten the road we've traveled on
Here's to the life

I'm so easy to forgive, except the way I live
And everything I do, and everything I do to you

You just gotta make a little place for yourself
You just gotta take a little time for yourself
Here's to the life, that we always never wanted
And somehow we've forgotten the road we've traveled on
Here's to the life
Tap to rate this tab
 
# A B C D E F G H I J K L M N O P Q R S T U V W X Y Z