Song name
# A B C D E F G H I J K L M N O P Q R S T U V W X Y Z

Mxpx - Today Is In My Way tab

Artist: MxPx
Song: Today Is In My Way
Album: Life In General

Intro: Guitar 1
E|-------------------------------------------|--1st time end with--|
B|-------------------------------------------|---------------------|
G|-------------------------------------------|---------------------|
D|------2h5p2-3-2----2h5p2-3-2-----2h5p2-3-2-|---5-6-5-3-2-3-5-----|
A|--3-5-----------3-5----------3-5-----------|-3-------------------|
E|-------------------------------------------|---------------------|

E|-2nd time end with-|
B|-------------------|
G|-----5-------------|
D|--3----------------|
A|-------5--3--------|
E|-------------------|


Intro: Guitar 2
E|------------------------|
B|------------------------|
G|----5-------------------|
D|----5----5----7----3----|
A|----3----5----7----3----|
E|---------3----5----1----|
      C    G    Am   F

Verse:
E|------------------------|
B|------------------------|
G|----5-------------------|
D|----5----5----7----3----|
A|----3----5----7----3----|
E|---------3----5----1----|
      C    G    Am   F

Pre-Chorus: "How will I get through tomorrow..."
E|------------------------|
B|------------------------|
G|--------------5---------|
D|----7----3----5----5----|
A|----7----3----3----5----|
E|----5----1---------3----|
      Am   F    C    G

Chorus: "Today is in my way..."
E|------------------------|
B|------------------------|
G|----5-------------------|
D|----5----3----7----5----|
A|----3----3----7----5----|
E|---------1----5----3----|
      C    F    Am   G

Interlude:
E|------------------------|--2nd time end with--|
B|------------------------|---------------------|
G|----5-------------------|---------------------|
D|----5----5----7----3----|-----------7---5-----|
A|----3----5----7----3----|---3---2---5---3-----|
E|---------3----5----1----|---1---0-------------|
      C    G    Am   F        F   Em  Dm  C

Repeat: Verse, PreChorus, Chorus

Bridge
E|-----------------------------------------------------------|
B|-----------------------------------------------------------|
G|--555~~~---------555~~~---------555~~~----------555~~~-----|
D|--555~~~---------555~~~---------555~~~----------555~~~-----|
A|--333~~~---------333~~~---------333~~~----------333~~~-----|
E|-----------------------------------------------------------|
     C              C              C               C
         
Repeat Chorus

Repeat Intro, end with
E|------------------|
B|------------------|
G|------------------|
D|--10---9---7---5--|
A|--8----7---5---3--|
E|------------------|
    F    Em  Dm   C					

That's it! Hopefully it's completely sound
Tap to rate this tab
 
# A B C D E F G H I J K L M N O P Q R S T U V W X Y Z