Song name
# A B C D E F G H I J K L M N O P Q R S T U V W X Y Z

Mxpx - My Life Story tab

For Rythem Listen to the cd (track one of album "ten years and running".
PM=X=Palm mute
~=Let ring
Play this whole thing in order
Intro 1(Guitar 1) 
e --------------------------------------
B --------------------------------------
G --------------------------------------
D -9-11-11-9-11-11-9-11-11-9-11-9-12-12-
A -0--0--0-0--0--0-0--0--0-0--0-0--0--0-
E --------------------------------------
Play 4 times

Intro 1.A (Guitar 2) (bass and drums come in here)
e --------------------------------------
B --------------------------------------
G ----------------------------------7-7-
D ----------------------------------7-7-
A ----------------------------------5-5-
E --------------------------------------
Play twice

Inrto 1.B (Guitar 2)(play right after Intro 1.A)
e --------------------------------------
B --------------------------------------
G -------------------------------7-7----
D -7-7-7-7-7-7-7-7-7-7-7-7-7-7-7-7-7----
A -7-7-7-7-7-7-7-7-7-7-7-7-7-7-7-5-5----
E -5-5-5-5-5-5-5-5-5-5-5-5-5-5-5--------
Play twice

Verse
e ------------------------------------------------------------------------
B ------------------------------------------------------------------------
G -----------7-7-----------7--------------------------7-7-7-7-7-7-7-7-----
D -7~------7-7-7---7~----7-7--7-7-7-7-7-7-4-4-4-2-2-2-7-7-7-7-7-7-7-7-2-2-
A -7~------7-5-5---7~----7-5--7-7-7-7-7-7-4-4-4-2-2-2-5-5-5-5-5-5-5-5-2-2-
E -5~------5-------5~----5----5-5-5-4-4-4-2-2-2-0-0-0-----------------0-0-
PM                            x x   x x   x x   x x
Play twice

Chorus
e --------------------------------------
B --------------------------------------
G ---------------------------7-7-7------
D -7-7-7-7-7-7-7-7-7-7-7-7-7-7-7-7-2-2--
A -7-7-7-7-7-7-7-7-7-7-7-7-7-5-5-5-2-2--
E -5-5-5-5-5-5-5-5-5-5-5-5-5-------0-0--
PLay twice

Intro 1(Guitar 1) 
e --------------------------------------
B --------------------------------------
G --------------------------------------
D -9-11-11-9-11-11-9-11-11-9-11-9-12-12-
A -0--0--0-0--0--0-0--0--0-0--0-0--0--0-
E --------------------------------------
Play twice

Inrto 1.B (play during Intro 1 Guitar 1)
e --------------------------------------
B --------------------------------------
G -------------------------------7-7----
D -7-7-7-7-7-7-7-7-7-7-7-7-7-7-7-7-7----
A -7-7-7-7-7-7-7-7-7-7-7-7-7-7-7-5-5----
E -5-5-5-5-5-5-5-5-5-5-5-5-5-5-5--------
Play twice

Verse
e ----------------------------------------------------------------------
B ----------------------------------------------------------------------
G 
D 
A 
E 
Play twice

Chorus
e --------------------------------------
B --------------------------------------
G ---------------------------7-7-7------
D -7-7-7-7-7-7-7-7-7-7-7-7-7-7-7-7-2-2--
A -7-7-7-7-7-7-7-7-7-7-7-7-7-5-5-5-2-2--
E -5-5-5-5-5-5-5-5-5-5-5-5-5-------0-0--
PLay twice

Intro 1(Guitar 1) 
e --------------------------------------
B --------------------------------------
G --------------------------------------
D -9-11-11-9-11-11-9-11-11-9-11-9-12-12-
A -0--0--0-0--0--0-0--0--0-0--0-0--0--0-
E --------------------------------------
Play twice

Inrto 1.B (play during Intro 1 Guitar 1)
e --------------------------------------
B --------------------------------------
G -------------------------------7-7----
D -7-7-7-7-7-7-7-7-7-7-7-7-7-7-7-7-7----
A -7-7-7-7-7-7-7-7-7-7-7-7-7-7-7-5-5----
E -5-5-5-5-5-5-5-5-5-5-5-5-5-5-5--------
Play twice

Bridge 1
e --------------------------------------
B --------------------------------------
G -----7-7------------------------------
D -7---7-7---2-2---7-7-2-2-7-7----------
A -7---5-5---2-2---7-7-2-2-7-7----------
E -5---------0-0---5-5-0-0-5-5----------
Play 4 times

Bridge 2
e -------------------------------------------------------------------
B -------------------------------------------------------------------
G -------------------9-9-9-9-9-9-9-9---------------------------------
D -7-7-7-7-7-7-7-7-7-9-9-9-9-9-9-9-9-4-4-4-4-4-4-4-4-2-2-2-2-2-2-2-2-
A -7-7-7-7-7-7-7-7-7-7-7-7-7-7-7-7-7-4-4-4-4-4-4-4-4-2-2-2-2-2-2-2-2-
E -5-5-5-5-5-5-5-5-5-----------------2-2-2-2-2-2-2-2-0-0-0-0-0-0-0-0-
PM x x x x x x x x x x x x x x x x x x x x x x x x x x x x x x x x x
Play once

Bridge 3
e ----------------------------------------------------------------------
B ----------------------------------------------------------------------
G --------------------9~------------------------------------------------
D -7~-----------------9~-------------4~---------------2-----------------
A -7~-----------------7~-------------4~---------------2-----------------
E -5~--------------------------------2~---------------0-----------------
Play once
Bridge 4
e --------------------------------------
B --------------------------------------
G -7-7----------------------------------
D -7-7-2-2------------------------------
A -5-5-2-2------------------------------
E -----0-0------------------------------
Play once

Chorus
e --------------------------------------
B --------------------------------------
G ---------------------------7-7-7------
D -7-7-7-7-7-7-7-7-7-7-7-7-7-7-7-7-2-2--
A -7-7-7-7-7-7-7-7-7-7-7-7-7-5-5-5-2-2--
E -5-5-5-5-5-5-5-5-5-5-5-5-5-------0-0--
PLay 4 times


Intro 1(Guitar 1) 
e --------------------------------------
B --------------------------------------
G --------------------------------------
D -9-11-11-9-11-11-9-11-11-9-11-9-12-12-
A -0--0--0-0--0--0-0--0--0-0--0-0--0--0-
E --------------------------------------
Play 4 times

Inrto 1.B (play during Intro 1 Guitar 1)
e --------------------------------------
B --------------------------------------
G -------------------------------7-7----
D -7-7-7-7-7-7-7-7-7-7-7-7-7-7-7-7-7----
A -7-7-7-7-7-7-7-7-7-7-7-7-7-7-7-5-5----
E -5-5-5-5-5-5-5-5-5-5-5-5-5-5-5--------
Play 4 times

Submitted by anu2u2
Thank you
Tap to rate this tab
 
# A B C D E F G H I J K L M N O P Q R S T U V W X Y Z