Song name
# A B C D E F G H I J K L M N O P Q R S T U V W X Y Z

Mxpx - Under Lock & Key tab

Artist:MxPx
Song:Under Lock and Key
Tabber:Mxfan

 / = slide
 ~ = vibrate
Intro 2x
e-------------------------------------------[]
B-------------------------------------------[]
G--8888888--3/555555------------------------[]  
D--8888888--3/555555--5/6666666--7/8888888--[]
A--6666666--1/555555--5/6666666--7/8888888--[]
E---------------------3/4444444--5/6666666--[]

Verse 1 2x
e---------------------------------------------[]
B---------------------------------------------[]
G--88888888----------------------5555---------[]
D--88888888--66666666--88888888--5555--66-88--[]
A--66666666--66666666--88888888--3333--66-88--[]
E------------44444444--66666666--------44-66--[]

Chorus 2x
e------------------------------------------[]
B------------------------------------------[]
G------------55555555----------------------[]
D--55555555--55555555--66666666--88888888--[]
A--55555555--33333333--66666666--88888888--[]
E--33333333------------44444444--66666666--[]

Verse 2 
e--------------------------------------------[]
B--------------------------------------------[]
G--8-----------------------------5555--------[]
D--8---------6---------8---------5555-66-88--[]
A--6---------6---------8---------3333-66-88--[]
E------------4---------6--------------44-66--[]

and The other part of verse 1x

Chorus 2x

Now the Bridge 4x
e----------------------[]
B----------------------[]
G--888-88--------------[]
D--888-88---66-55---8--[]
A--666-66---66-55---8--[]
E-----------44-33---6--[]

Play chorus line 1 time then play:
e------------------------------------------[]
B------------------------------------------[]
G------------55555555----------------------[]
D--55555555--55555555--6---------88888888--[]
A--55555555--33333333--6---------88888888--[]
E--33333333------------4---------66666666--[]

Now the Intro sorta thing, you can really hear the bass geetawr during this! 2x
e----------------------------------------------[]
B----------------------------------------------[]
G--8--------3/5--------------------------------[]
D--8--------3/5--------5/6---------7/88888888--[]
A--6--------1/3--------5/6---------7/88888888--[]
E----------------------3/4---------5/66666666--[]

Outro: Bride 4x. A 2nd Geetawr comes in playing a little bit (I won't go into detail,so figure it out!) after the bridge is played 2x. It just this chord strummed several times.
e-----[]
B-----[]
G--8--[]
D--x--[]
A--6--[]
E-----[]

end on 
e-------[]
B-------[]
G--8~~--[]
D--8~~--[]
A--6~~--[]
E-------[]

MxPx and Jesus rule, don't forget it!











Tap to rate this tab
# A B C D E F G H I J K L M N O P Q R S T U V W X Y Z