Song name
# A B C D E F G H I J K L M N O P Q R S T U V W X Y Z

Mxpx - Bad Hair Day tab

Artist:Magnified Plaid/MxPx
Album:Pokinatcha
Song:Bad Hair Day
Tuning:Standard

This is my first Tab so i hope its good, i seen nobody had done this song

yet, so i took a few minutes to try and figure it out and this is what i

got.
____________________________________________________________________________

Intro/Verse
Repeat 8 Times             
E|------------------------|
B|------------------------|Then every other time you play this after the 
G|------------------------|first time, for the D and A string power chord
D|-----------5-5-5-4-5----|play that D-5-  instead of D-4-
A|-----5-5-5-3-3-3-2-3----|          A-3-             A-2-
e|-----3-3-3--------------|          E---             E---


Pre-Chorus

E|----------------------------------------------------------------|
B|----------------------------------------------------------------|
G|---------------------------------5-5-5-5-5-5-5-5-5-5-5-5-5-5----|
D|---------------------------------3-3-3-3-3-3-3-3-3-3-3-3-3-3----|
A|-----7-7-7-7-7-7-7-7-7-7-7-7-7-7--------------------------------|
e|-----5-5-5-5-5-5-5-5-5-5-5-5-5-5--------------------------------|

Chorus
Repeat 4 Times
E|--------------------------|
B|--------------------------|
G|--------------------------|
D|------------5--5-5-4-5----|
A|-----5--5-5-3--3-3-2-3----|
e|-----3--3-3---------------|

Bridge/Interlude
Repeat 8 Times
E|----------------------|
B|----------------------|
G|------------7--7-7----|
D|------------5--5-5----|
A|-----5--5-5-----------|
e|-----3--3-3-----------|


Order:
Intro/Verse
Pre-Chorus
Chorus
Verse
Pre-Chorus
Chrous
Bridge/InterLude
Pre-Chorus
Chorus
Pre-Chorus
Chorus
Tap to rate this tab
 
# A B C D E F G H I J K L M N O P Q R S T U V W X Y Z