Song name
# A B C D E F G H I J K L M N O P Q R S T U V W X Y Z

Mxpx - Christmas Day tab

-----------------------------------------------------------------
Christmas Day - MXPX
-----------------------------------------------------------------
Tabbed by: Bair
Email: bair_morritt@hotmail.com
Tuning: Standard

Intro:
e|------------|---------------------------------------------------|
B|------------|---------------------------------------------------|
G|------------|--------------------555555-------------------------|
D|--xxxxxxxx--|--55555555--222222--555555--(X2)-------------------|
A|--xxxxxxxx--|--55555555--222222--333333-------------------------|
E|--xxxxxxxx--|--33333333--000000---------------------------------|

Verse:
e|---------------------------------------------------------------|
B|---------------------------------------------------------------|
G|------------------------5-5555555------------------------------|
D|--5-5555555--2-2222222--5-5555555--(X2)------------------------|
A|--5-5555555--2-2222222--3-3333333------------------------------|
E|--3-3333333--0-0000000-----------------------------------------|

Pre- Chorus:
e|---------------------------------------------------------------|
B|---------------------------------------------------------------|
G|--77777777--55555555--77777777--5555--7777---------------------|
D|--77777777--55555555--77777777--5555--7777---------------------|
A|--55555555--33333333--55555555--3333--5555---------------------|
E|---------------------------------------------------------------|

Chorus:
e|---------------------------------------------------------------|
B|---------------------------------------------------------------|
G|----------------------55555555--7777--5555---------------------|
D|--55555555--22222222--55555555--7777--5555--(X2)---------------|
A|--55555555--22222222--33333333--5555--3333---------------------|
E|--33333333--00000000-------------------------------------------|

Bridge:
e|---------------------------------------------------------------|
B|---------------------------------------------------------------|
G|----------------------55555555--77777777-----------------------|
D|--55555555--22222222--55555555--77777777--(X2)-----------------|
A|--55555555--22222222--33333333--55555555-----------------------|
E|--33333333--00000000-------------------------------------------|

e|---------------------------------------------------------------|
B|---------------------------------------------------------------|
G|------------55555555------------77777777-----------------------|
D|--22222222--55555555--55555555--77777777-----------------------|
A|--22222222--33333333--55555555--55555555-----------------------|
E|--00000000------------33333333---------------------------------|

Outro:
e|---------------------------------------------------------------|
B|---------------------------------------------------------------|
G|----------------------5555-5-5-5-5-----------------------------|
D|--55555555--22222222--5555-5-5-5-5--5--------------------------|
A|--55555555--22222222--3333-3-3-3-3--5--(Let Ring)--------------|
E|--33333333--00000000----------------3--------------------------|
Tap to rate this tab
# A B C D E F G H I J K L M N O P Q R S T U V W X Y Z