Song name
# A B C D E F G H I J K L M N O P Q R S T U V W X Y Z

Mxpx - The Next Big Thing tab

---------------------------------------------------------------------------
			                        The Next Big Thing - MxPx
---------------------------------------------------------------------------
Tabbed by: Punk Rock Mike
Email: mjrocknmxpx@hotmail.com

Tuning: Standerd

Ok, so this is my first tab. Tell me what you think. Im pretty shure its right.


e|---------------------------------------------------|
B|--5-5-4-2-0-0-0-0-5-5-4-2-0-0-2-4-5-5-4-2-0-0-0-0--|
G|---------------------------------------------------|
D|---------------------------------------------------|
A|---------------------------------------------------|
E|---------------------------------------------------|



e|---------------------|
B|--5-----5-7-5----5~--|
G|-----4--------4------|
D|---------------------|
A|---------------------|
E|---------------------|



e|-------------------------|    |----------------|
B|-------------------------|    |----------------|
G|---9-----9-----9---8---8-|    |---9-----9------|
D|-7---7-6---6-9---9---9---| X3 |-7---7-6---6-9~-|
A|-------------------------|    |----------------|
E|-------------------------|    |----------------|

Well, That thats it. Have fun! Oh yeah and MxPx Rocks!
Tap to rate this tab
# A B C D E F G H I J K L M N O P Q R S T U V W X Y Z