Song name
# A B C D E F G H I J K L M N O P Q R S T U V W X Y Z

Mxpx - Tomorrow Is Another Day tab

Mxpx - Tomorrow is another day
Tabber: Raul Martinez Villarreal

I got the song from the live version they played on the Warped tour 2002
cause the real one is too low quality

HERES THE LINK

http://www.youtube.com/watch?v=ZVWal-RR59I

Key:
   ^=hard bend
   \=slide down
   /=slide up
 tr~=tremble pick
   *=hold bend
   ~=vibrato


INTRO/VERSE

|------------------------------------|
|------------------------------------|
|-4444----6666-----------------------|
|-4444444466662222-------------------|
|-2222444444442222-------------------|
|-----2222----0000-------------------|


|-------------------|                             
|-------------------|                           
|-44-33-------------|                           
|-44-44-22222222222-|  
|-22-22-22222222222-|                           
|-------00000000000-| 

SECOND TIME IS LIKE THIS                          

|-----------------------------------|                             
|-----------------------------------|                           
|-44-33-------------99999-----------|                           
|-44-44-22222222222-XXXXX-----------|  
|-22-22-22222222222-77777-----------|                           
|-------00000000000-----------------| 

LITTLE INTERLUDE

|--------------------------------|
|--------------------------------|
|--8-6-4-3---9-8-6--9-8-6--------|
|--X-X-X-X---X-X-X--X-X-X--------| X2
|--6-4-2-1---7-6-4--7-6-4--------|
|--------------------------------|

|------------------------------------------|
|------------------------------------------|
|-4444----6666-----------------------------|
|-4444444466662222222222-------------------|
|-2222444444442222222222-------------------|
|-----2222----0000000000-------------------|
              ..........  


THE OTHER INTERLUDE
REPEAT HOW MANY TIMES NEEDED (ALOT)

|----------------------------|
|----------------------------|
|----------------------------|
|-4-----6--------------------|
|-2~-4--4~-2--4--------------|
|----2~----0~-2~-------------|


AFTER MIKE SINGS ALONE


I dont want to, i dont want to
|------------------------|
|------------------------|
|--888--888--8-6-4-6-----|
|--xxx9-xxx9-x-x-x-x-----| X2
|--666x-666x-6-4-2-4-----|
|-----7----7-------------|

|-----------------------------------------------------------------|
|-----------------------------------------------------------------|
|10101010101010101010101010101010-8-6-4-6-------------------------|
|-X-X-X-X-X-X-X-X-X-X-X-X-X-X-X-X-X-X-X-X-------------------------|
|-9 9-9-9-9-9-9-9-9-9-9-9-9-9-9-9-6-4-2-4-------------------------|
|-----------------------------------------------------------------|

|-------------------------------------------------------------------|
|-------------------------------------------------------------------|
|10101010101010101010101010101010-8-6-4-6-4~------------------------|
|-X-X-X-X-X-X-X-X-X-X-X-X-X-X-X-X-X-X-X-X-4~------------------------|
|-9 9-9-9-9-9-9-9-9-9-9-9-9-9-9-9-6-4-2-4-2~------------------------|
|-------------------------------------------------------------------|

END ON

|------------|
|------------|
|-4/---------|
|-4/---------|
|-2/---------|
|------------|
Tap to rate this tab
# A B C D E F G H I J K L M N O P Q R S T U V W X Y Z